Cifra Club

Closer

Kings Of Leon

Tablatura: Principal (guitarra)
Tom: D
                                   
e|---------------------------------------------------------------------------|
B|---------12----------------15---------------14-----------------------------|
G|---------------------------------------------------------------------------|
D|-9---------------12---------------11---------------------------------------|
A|---------------------------------------------------------------------------|
E|---------------------------------------------------------------------------|

Distorcido
e|---------------------------------------------------------------------------|
B|--10-10-10-10-10-10-10-10-5-5-5-3-3-3-3-5-5-5-2-2-2-2-2-2-2-2--------------|
G|---------------------------------------------------------------------------|
D|---------------------------------------------------------------------------|
A|---------------------------------------------------------------------------|
E|---------------------------------------------------------------------------|
Essa parte é usada no refrão e em algumas outras partes ("And it's calling me closer")

Distorcido com Reverb
e|---------------------------------------------------------------------------|
B|-------12---------12---------15----------15----------14----------14--------|
G|----11----11---11---11----14----14----14----14----14----14----14----14-----|
D|--9----------9----------12----------12----------11----------11-------------|
A|---------------------------------------------------------------------------|
E|---------------------------------------------------------------------------|
reproducciones 922
Acordes para:

    0 comentarios

    mostrar más comentarios

    ¿Conseguiste tocar?

    3 tocaron 1 aún no

    ¡Graba un vídeo tocando Closer y envianoslo!

    00:00 / 00:00
    outros vídeos desta música
    repetir qualidade Automático
    Outros vídeos desta música
    00:00 / 00:00
    Automático
    OK