Cifra Club

Conversation Piece

Kings Of Leon

Tablatura: Principal (guitarra)
Tom: E
[Intro]  E  F#m  E  F#m
         G#m  F#m  E  F#m

E|-------------------------------------------------------------------------------|
B|-----9-------9-------9-------10--------9-------9-------9-------10---------12---|
G|---9---9---9---9---9---9---11---11---9---9---9---9---9---9---11---11---13---13-|
D|-9-------9-------9-------11--------9-------9-------9-------11--------13--------|
A|-------------------------------------------------------------------------------|
E|-------------------------------------------------------------------------------|

E|--------------------------------------------------------------------------|
B|------12---------10---------10--------------------------------------------|
G|---13---13----11----11---11---11------------------------------------------|
D|-13--------11---------11--------9-----------------------------------------|
A|--------------------------------------------------------------------------|
E|--------------------------------------------------------------------------|

 E                     F#m
  Take me back to California
 E                       F#m
  To those crystal neon signs
G#m                         A
    Where the traveling sensations 
F#m                        E       F#m
    Are all blinded by the light

E                         F#m
 There are eyes in every corner
E                            F#m
 Bloated brains and rotten smiles
G#m                          A
    There are coats of many colors
F#m                        E       F#m
   Flying high up in the sky

G#m                         A
    Won't you come round my way
                 E
For some conversation, please
G#m                         A
    Won't you come round my way
                E
It's a conversation piece

E  F#m

 E                              F#m
  Look at all these shattered faces
 E                           F#m
  They all look so out of place
G#m                            A
  They've got nothing left to live for
F#m                            E              F#m
  They'll be dead before they wake

 E                                    F#m
  I'd love to know just what you're thinking
 E                         F#m
  Tell me what I ought to do
G#m                        A
   I will never leave you lonely,
F#m                            E       F#m
   You're the one I'm runnin' to

A                    B
 Get me out of California
C#m                     G#m
 Take me off into the blue
A                      B
 We can make it out together
C#m                    G#m
 To the place that's calling you

A                         B
 Won't you come round my way
               C#m                 G#m
For some conversation, please
A                         B
 Won't you come round my way
                E                  F#m
It's a conversation piece

E  F#m 

G#m                         A
  Won't you come round my way
                   E               F#m
For some conversation, please
A                         B
 Won't you come round my way
               C#m                 G#m
For some conversation, please
 A                      B
Oh, won't you come round my way
                E                  F#m
It's a conversation piece

E  F#m 
reproducciones 20
Acordes para:
    Colaboración y revision:
    • J P.

    0 comentarios

    mostrar más comentarios

    ¿Conseguiste tocar?

    0 tocaron 0 aún no

    ¡Graba un vídeo tocando Conversation Piece y envianoslo!

    00:00 / 00:00
    outros vídeos desta música
    repetir qualidade Automático
    Outros vídeos desta música
    00:00 / 00:00
    Automático
    OK