Cifra Club

Pyro

Kings Of Leon

Tablatura: Principal (guitarra)
Tom: E
Intro:
E|--------------------------------------------------------------------------------------------||
B|---------4----------4----------4----------4----------4----------4----------4----------4-----||
G|-----4-----4----4-----4----4-----4----4-----4----6-----6----6-----6----6-----6----6-----6---||
D|---6---6------6---6------6---6------6---6------6---6------6---6------6---6------6---6-------||
A|--------------------------------------------------------------------------------------------||
E|--------------------------------------------------------------------------------------------||

E|--------------------------------------------------------------------------------------------||
B|---------4----------4----------4----------4----------4----------4----------4----------4-----||
G|-----4-----4----4-----4----4-----4----4-----4----6-----6----6-----6----6-----6----6---------||
D|---6---6------6---6------6---6------6---6------6---6------6---6------6---6------6---6-------||
A|--------------------------------------------------------------------------------------------||
E|--------------------------------------------------------------------------------------------||

E|-------------7---------7----------7----------7----------7----------7----------7----------7----||
B|----7/9-9------9----9----9----9-----9----9-----9----9-----9----9-----9----9-----9----9-----9--||
G|-----------9------9---9-----9---9------9---9------9---9------9---9------9---9------9---9------||
D|----------------------------------------------------------------------------------------------||
A|----------------------------------------------------------------------------------------------||
E|----------------------------------------------------------------------------------------------||

E|-------7----------7----------7----------7----------7----------7----------7----------7---------||
B|----9----9----9-----9----9-----9----9-----9----9-----9----9-----9----9-----9----9-------------||
G|--9---9-----9---9------9---9------9---9------9---9------9---9------9---9------9---9-----------||
D|----------------------------------------------------------------------------------------------||
A|----------------------------------------------------------------------------------------------||
E|----------------------------------------------------------------------------------------------||


C#m                            A4                      E
Single book of matches, gonna burn whose standing in the way
C#m                               A4                 E
Burning down the mountain, better call on the fire brigade
C#m                       A4                      E
Bury all the pictures and tell the kids that I'm ok
C#m                            A4            E
Even if I'm forgotten you'll remember me for a day

C#m A4 E                                  C#m A4 E
I,       I don't wanna be your cornerstone, I

All the black inside me is slowly seeping from the bone
Everything I cherished is slowly dying or is gone
Little shaking babies and drunkards seem to all agree
Once the show gets started its bound to be a sight to see

I, I won't ever be your cornerstone
I, I don't wanna be holding on
I, I won't ever be your cornerstone, I
Watch her run, Can you feel it? (4x)
I, I won't ever be your cornerstone
I, I don't wanna be holding on
I, I won't ever be your cornerstone
I, I don't wanna be holding on
reproducciones 3.722
Acordes para:

    0 comentarios

    mostrar más comentarios

    ¿Conseguiste tocar?

    20 tocaron 0 aún no

    ¡Graba un vídeo tocando Pyro y envianoslo!

    00:00 / 00:00
    outros vídeos desta música
    repetir qualidade Automático
    Outros vídeos desta música
    00:00 / 00:00
    Automático
    OK