Cifra Club

Reverend

Kings Of Leon

Tablatura: Principal (guitarra)
Tom: Eb
[Intro]
E|-6~------------------6-|7~--------6--~----------|
B|-8~---------------8----|------------------------|
G|-8~------------8-------|------------------------|
D|-----------------------|------------------------|
A|-----------------------|------------------------|
E|-----------------------|------------------------|

E|-------------------------|------------------------|
B|-8~-------------------11-|9~----------8~----------|
G|-8~-----------------8----|------------------------|
D|-8~--------------8-------|------------------------|
A|-------------------------|------------------------|
E|-------------------------|------------------------|

E|-------------------------|------------------------|
B|-9~-------------------9--|------------9~----------|
G|-10~---------------10----|------------------------|
D|-10~------------10-------|12~---------------------|
A|-------------------------|------------------------|
E|-------------------------|------------------------|


E|-------------------------|------------------------|
B|-4~--------------------4-|3~----------------------|
G|-5~-----------------5----|------------------------|
D|-5~--------------5-------|------------------------|
A|-------------------------|------------------------|
E|-------------------------|------------------------|



[Verse 1]
E|-------------------------|------------------------|
B|----8--------8--------8--|---9--------9--------9--|
G|-------8--------8--------|------10-------10-------|
D|-------------------------|------------------------|
A|-6--------6--------6-----|8--------8--------8-----|
E|-------------------------|------------------------|

E|-------------------------|------------------------|
B|----4--------4--------4--|---4--------4--------4--|
G|-------5--------5--------|------5--------5--------|
D|-------------------------|------------------------|
A|-3--------3--------3-----|3--------3--------3-----|
E|-------------------------|------------------------| x2


E|-------------------------|------------------------|
B|----8--------8--------8--|---9--------9--------9--|
G|-------8--------8--------|------10-------10-------|
D|-------------------------|------------------------|
A|-6--------6--------6-----|8--------8--------8-----|
E|-------------------------|------------------------|

E|-------------------------|------------------------|
B|----3--------3--------3--|---8-----------6--------|
G|-------3--------3--------|------8-----------7-----|
D|-------------------------|------------------------|
A|-1--------1--------1-----|6--------1--5--------1--| 
E|-------------------------|------------------------| 

E|-------------------------|------------------------|
B|----4--------4--------4--|---9--------9--------9--|
G|-------5--------5--------|------10-------10-------|
D|-------------------------|------------------------|
A|-3--------3--------3-----|8--------8--------8-----|
E|-------------------------|------------------------|

E|-------------------------|------------------------|
B|----3--------3--------3--|---3--------3~----------|
G|-------3--------3--------|------3-----------------|
D|-------------------------|------------------------|
A|-1--------1--------1-----|1--------1--------------|
E|-------------------------|------------------------|



[Chorus 1]
E|-------------------------|------------------------|
B|-------11-13----11-13----|------11-13----11-13----|
G|-10-12-------12-------12-|10-12-------12-------12-|
D|-------------------------|------------------------|
A|-------------------------|------------------------|
E|-------------------------|------------------------|

E|-------------------------|------------------11----|
B|-------11-13----11-13----|11-13----11-13-------13-|
G|-10-12-------12-------12-|------12-------12-------|
D|-------------------------|------------------------|
A|-------------------------|------------------------|
E|-------------------------|------------------------|

E|-------------11----------|------11-------------11-|
B|----11-13-------13----11-|13----------11-13-------|
G|-12-------12-------12----|---12----12-------12----|
D|-------------------------|------------------------|
A|-------------------------|------------------------|
E|-------------------------|------------------------|

E|-------------------------|11----11-11-------------|
B|-13----11-13----11-13----|11h13----13p11----11-13-|
G|----12-------12-------12-|---------------12-------|
D|-------------------------|------------------------|
A|-------------------------|------------------------|
E|-------------------------|------------------------|


E|-------------------------|11----------------------|
B|-------11-13----11-13----|------11-13----11-13----|
G|-10-12-------12-------12-|---12-------12-------12-|
D|-------------------------|------------------------|
A|-------------------------|------------------------|
E|-------------------------|------------------------|

E|-------------------------|------------------11----|
B|-------11-13----11-13----|11-13----11-13-------13-|
G|-10-12-------12-------12-|------12-------12-------|
D|-------------------------|------------------------|
A|-------------------------|------------------------|
E|-------------------------|------------------------|

E|-------------11----------|------11-------------11-|
B|----11-13-------13----11-|13----------11-13-------|
G|-12-------12-------12----|---12----12-------12----|
D|-------------------------|------------------------|
A|-------------------------|------------------------|
E|-------------------------|------------------------|

E|-------------------------|11----11-11-------------|
B|-13----11-13----11-13----|11h13----13p11----11-13-|
G|----12-------12-------12-|---------------12-------|
D|-------------------------|------------------------|
A|-------------------------|------------------------|
E|-------------------------|------------------------|



[Verse 2]
E|-------------------------|------------------------|
B|----8--------8--------8--|---9--------9--------9--|
G|-------8--------8--------|------10-------10-------|
D|-------------------------|------------------------|
A|----------6--------6-----|8--------8--------8-----|
E|-------------------------|------------------------|

E|-------------------------|------------------------|
B|----4--------4--------4--|---4--------4--------4--|
G|-------5--------5--------|------5--------5--------|
D|-------------------------|------------------------|
A|-3--------3--------3-----|3--------3--------3-----|
E|-------------------------|------------------------| x2


E|-------------------------|------------------------|
B|----8--------8--------8--|---9--------9--------9--|
G|-------8--------8--------|------10-------10-------|
D|-------------------------|------------------------|
A|-6--------6--------6-----|8--------8--------8-----|
E|-------------------------|------------------------|

E|-------------------------|------------------------|
B|----3--------3--------3--|---8-----------6--------|
G|-------3--------3--------|------8-----------7-----|
D|-------------------------|------------------------|
A|-1--------1--------1-----|6--------1--5--------1--|
E|-------------------------|------------------------|

E|-------------------------|------------------------|
B|----4--------4--------4--|---9--------9--------9--|
G|-------5--------5--------|------10-------10-------|
D|-------------------------|------------------------|
A|-3--------3--------3-----|8--------8--------8-----|
E|-------------------------|------------------------|

E|-------------------------|------------------------|
B|----3--------3--------3--|---3--------3~----------|
G|-------3--------3--------|------3-----------------|
D|-------------------------|------------------------|
A|-1--------1--------1-----|1--------1--------------|
E|-------------------------|------------------------|


[Chorus 2]
E|-------------------------|------------------------|
B|-------11-13----11-13----|------11-13----11-13----|
G|-10-12-------12-------12-|10-12-------12-------12-|
D|-------------------------|------------------------|
A|-------------------------|------------------------|
E|-------------------------|------------------------|

E|-------------------------|------------------11----|
B|-------11-13----11-13----|11-13----11-13-------13-|
G|-10-12-------12-------12-|------12-------12-------|
D|-------------------------|------------------------|
A|-------------------------|------------------------|
E|-------------------------|------------------------|

E|-------------11----------|------11-------------11-|
B|----11-13-------13----11-|13----------11-13-------|
G|-12-------12-------12----|---12----12-------12----|
D|-------------------------|------------------------|
A|-------------------------|------------------------|
E|-------------------------|------------------------|

E|-------------------------|11----11-11-------------|
B|-13----11-13----11-13----|11h13----13p11----11-13-|
G|----12-------12-------12-|---------------12-------|
D|-------------------------|------------------------|
A|-------------------------|------------------------|
E|-------------------------|------------------------|


E|-------------------------|11----------------------|
B|-------11-13----11-13----|------11-13----11-13----|
G|-10-12-------12-------12-|---12-------12-------12-|
D|-------------------------|------------------------|
A|-------------------------|------------------------|
E|-------------------------|------------------------|

E|-------------------------|11----------------------|
B|-------11-13----11-13----|------11-13----11-13----| 
G|-10-12-------12-------12-|---12-------12-------12-|
D|-------------------------|------------------------|
A|-------------------------|------------------------|
E|-------------------------|------------------------|

E|-11----------------------|---11----------------11-|
B|----13----11-13----11-13-|------13----11-13-------| 
G|-------12-------12-------|12-------12-------12----| 
D|-------------------------|------------------------|
A|-------------------------|------------------------|
E|-------------------------|------------------------|

E|-------------------------|11----11-11-------------|
B|-13----11-13----11-13----|11h13----13p11----11-13-|
G|----12-------12-------12-|---------------12-------|
D|-------------------------|------------------------|
A|-------------------------|------------------------|
E|-------------------------|------------------------|


[Bridge]
E|-------------------------|------------------------|
B|-------------------------|------------------------|
G|----12-------12-------12-|---12-------12-------12-|
D|-------13-------13-------|------13-------13-------|
A|-------------------------|------------------------|
E|-------------------------|------------------------|

E|-------------------------|------------------------|
B|-------------------------|------------------------|
G|----12-------12-------12-|------12-------12-13-12-|
D|-------13-------13-------|13-------13-------------|
A|-------------------------|------------------------|
E|-------------------------|------------------------|

E|-------------------------|------------------------|
B|-------------------------|------------------------|
G|----13-------13-------13-|------13-------13-------|
D|-------15-------15-------|15-------15-------15----|
A|-------------------------|------------------------|
E|-------------------------|------------------------|

E|-------------------------|------------------------|
B|-------------------------|------------------------|
G|----8--------8--------8--|8-----------------------|
D|-------10-------10-------|10----------------------|
A|-------------------------|10----------------------|
E|-------------------------|------------------------| 


E|-------------------------|------------------------|
B|-------------------------|------------------------|
G|-12-------12-------12----|------------------------|
D|-------13-------13-------|15----13-15----13-15-13-|
A|----13-------13-------13-|---15-------15----------|
E|-------------------------|------------------------| 

E|-------------------------|------------------------|
B|-------------------------|------------------------|
G|-12-------12-------12----|------------------------|
D|-------13-------13-------|15----13-15----13-18-17-|
A|----13-------13-------13-|---15-------15----------|
E|-------------------------|------------------------| 

E|-------------------------|------------------------|
B|-------------------------|------------------------|
G|----------13-------13----|------------------------|
D|-18----15-------15-------|15----17-18-15----15-17-|
A|----15-------15-------15-|---15----------15-------|
E|-------------------------|------------------------| 

E|-------------------------|------------------------|
B|-------------------------|------------------------|
G|-8--------8-----8--------|8-----------------------|
D|-------10----------10----|------------------------|
A|----10-------10-------10-|------------------------|
E|-------------------------|------------------------| 




[Chorus]
E|-------------------------|------------------------|
B|-------11-13----11-13----|------11-13----11-13----|
G|-10-12-------12-------12-|10-12-------12-------12-|
D|-------------------------|------------------------|
A|-------------------------|------------------------|
E|-------------------------|------------------------|

E|-------------------------|------------------11----|
B|-------11-13----11-13----|11-13----11-13-------13-|
G|-10-12-------12-------12-|------12-------12-------|
D|-------------------------|------------------------|
A|-------------------------|------------------------|
E|-------------------------|------------------------|

E|-------------11----------|------11-------------11-|
B|----11-13-------13----11-|13----------11-13-------|
G|-12-------12-------12----|---12----12-------12----|
D|-------------------------|------------------------|
A|-------------------------|------------------------|
E|-------------------------|------------------------|

E|-------------------------|11----11-11-------------|
B|-13----11-13----11-13----|11h13----13p11----11-13-|
G|----12-------12-------12-|---------------12-------|
D|-------------------------|------------------------|
A|-------------------------|------------------------|
E|-------------------------|------------------------|


E|-------------------------|11----------------------|
B|-------11-13----11-13----|------11-13----11-13----|
G|-10-12-------12-------12-|---12-------12-------12-|
D|-------------------------|------------------------|
A|-------------------------|------------------------|
E|-------------------------|------------------------|

E|-------------------------|------------------11----|
B|-------11-13----11-13----|11-13----11-13-------13-|
G|-10-12-------12-------12-|------12-------12-------|
D|-------------------------|------------------------|
A|-------------------------|------------------------|
E|-------------------------|------------------------|

E|-------------11----------|------11-------------11-|
B|----11-13-------13----11-|13----------11-13-------|
G|-12-------12-------12----|---12----12-------12----|
D|-------------------------|------------------------|
A|-------------------------|------------------------|
E|-------------------------|------------------------|

E|-------------------------|11----11-11-------------|
B|-13----11-13----11-13----|11h13----13p11----11-13-|
G|----12-------12-------12-|---------------12-------|
D|-------------------------|------------------------|
A|-------------------------|------------------------|
E|-------------------------|------------------------|


E|-------------------------|------------------------|------------------------|
B|-------------------------|8~-------------------6--|6~-------------------8--|
G|-------------8--8--8--8--|------------8--8--8-----|------------8--8--8-----|
D|-------------------------|------------------------|------------------------|
A|-------------------------|------------------------|------------------------|
E|-------------------------|------------------------|------------------------|

E|-------------------------|------------------------|
B|-8~-------------------8--|8--6-----------6--------|
G|-------------8--8--8-----|---------8-----------5~-|
D|-------------------------|------------------------|
A|-------------------------|------------------------|
E|-------------------------|------------------------|

E|-------------------------|------------------------|
B|-------------------------|6~----------------6b----|
G|-------------5--5--5--8--|------------5--5--------|
D|-------------------------|------------------------|
A|-------------------------|------------------------|
E|-------------------------|------------------------|

E|-------------------------|------------------------|
B|----------------------8--|8-----6-----------6-----|
G|-------------5--5--5-----|---5-----5--8--5-----8--|
D|-------------------------|------------------------|
A|-------------------------|------------------------|
E|-------------------------|------------------------|

E|-------------------------|------------------------|
B|-------------------6b----|------------------6b----|
G|-------------8--8--------|------------8--8--------|
D|-------------------------|------------------------|
A|-------------------------|------------------------|
E|-------------------------|------------------------|

E|-------------------------|------------------------|
B|----------------------8--|8--6-----------6--------|
G|-------------8--8--8-----|---------8-----------5~-|
D|-------------------------|------------------------|
A|-------------------------|------------------------|
E|-------------------------|------------------------|

E|-------------------------|------------------------|
B|-------------------------|6~----------------6b----|
G|-5~----------5--5--5--8--|------------5--5--------|
D|-------------------------|------------------------|
A|-------------------------|------------------------|
E|-------------------------|------------------------|

E|-------------------------|------------------------|
B|----------------------8--|8--6-----------6--------|
G|-------------5--5--5-----|---------8-----------8--|
D|-------------------------|------------------------|
A|-------------------------|------------------------|
E|-------------------------|------------------------|


E|-------------------------|------------------------|------------------------|
B|-------------------------|8~-------------------6--|6~-------------------8--|
G|-------------8--8--8--8--|------------8--8--8-----|------------8--8--8-----|
D|-------------------------|------------------------|------------------------|
A|-------------------------|------------------------|------------------------|
E|-------------------------|------------------------|------------------------|

E|-------------------------|------------------------|
B|-8~-------------------8--|8--6-----------6--------|
G|-------------8--8--8-----|---------8-----------5~-|
D|-------------------------|------------------------|
A|-------------------------|------------------------|
E|-------------------------|------------------------|

E|-------------------------|------------------------|
B|-------------------------|------------------------|
G|-------------5--5--5--/8-|8~----------5--5--5--/10|
D|-------------------------|------------------------|
A|-------------------------|------------------------|
E|-------------------------|------------------------|

E|-------------------------|------------------------|
B|----------------------8--|8--6-----------6--------|
G|10~-----------5--5--5----|---------8-----------8--|
D|-------------------------|------------------------|
A|-------------------------|------------------------|
E|-------------------------|------------------------|

E|-------------------------|------------------------|
B|----------------------6--|6~-------------------8--|
G|-------------8--8--8-----|------------8--8--8-----|
D|-------------------------|------------------------|
A|-------------------------|------------------------|
E|-------------------------|------------------------|

E|-------------------------|------------------------|
B|-8~-------------------8--|8--6-----------6--------|
G|-------------8--8--8-----|---------8-----------5~-|
D|-------------------------|------------------------|
A|-------------------------|------------------------|
E|-------------------------|------------------------|

E|-------------------------|------------------------|
B|-------------------------|------------------------|
G|-------------5--5--5--/8-|8~----------5--5--5--/10|
D|-------------------------|------------------------|
A|-------------------------|------------------------|
E|-------------------------|------------------------|

E|-------------------------|------------------------|
B|----------------------8--|8--6-----------6--------|
G|10~-----------5--5--5----|---------8-----------8--|
D|-------------------------|------------------------|
A|-------------------------|------------------------|
E|-------------------------|------------------------|




[Outro]
E|-6~------------------6-|7~--------6~------------|
B|-8~---------------8----|------------------------|
G|-8~------------8-------|------------------------|
D|-----------------------|------------------------|
A|-----------------------|------------------------|
E|-----------------------|------------------------|

E|-------------------------|------------------------|
B|-8~-------------------11-|9~----------8~----------|
G|-8~-----------------8----|------------------------|
D|-8~--------------8-------|------------------------|
A|-------------------------|------------------------|
E|-------------------------|------------------------|

E|-------------------------|------------------------|
B|-9~-------------------9--|------------9~----------|
G|-10~---------------10----|------------------------|
D|-10~------------10-------|12~---------------------|
A|-------------------------|------------------------|
E|-------------------------|------------------------|


E|-------------------------|------------------------|
B|-4\3~--------------------|------------------------|
G|-5~----------------------|------------------------|
D|-5~----------------------|------------------------|
A|-------------------------|------------------------|
E|-------------------------|------------------------|
reproducciones 248
Acordes para:
    Colaboración y revision:
    • Miguel Ferreira

    0 comentarios

    mostrar más comentarios

    ¿Conseguiste tocar?

    0 tocaron 0 aún no

    ¡Graba un vídeo tocando Reverend y envianoslo!

    00:00 / 00:00
    outros vídeos desta música
    repetir qualidade Automático
    Outros vídeos desta música
    00:00 / 00:00
    Automático
    OK