Cifra Club

Aprenda

Temple

Kings Of Leon

Tablatura: Principal (guitarra)
Tom: A
Intro 2x: A  D  Bm  E
       
     A            A9    A              A9
E|--0--0--0-0-0--0--|--0--0-0--0-0-0--0-0---|
B|--2--2--2-2-2--0--|--2--2-2--2-2-2--0-0---| 
G|--2--2--2-2-2--2--|--2--2-2--2-2-2--2-2---|
D|--2--2--2-2-2--2--|--2--2-2--2-2-2--2-2---| (6x)
A|--0--0--0-0-0--0--|--0--0-0--0-0-0--0-0---|
E|------------------|-----------------------|

Primeira Parte:

     A               D
The dance floor's a temptress
Bm            E              A     D  Bm  E
   Can't make out what your saying

         A          D
But you rub me the right way
Bm             E            A      D  Bm  E
   With your child-like persuasion

             A           D
I've got my hands in my pockets
Bm           E          A      D  Bm  E
   And I'm crossing my fingers

Matt:                
E|------------------------------------------|
B|------------------------------------------|
G|---------------6--6-6-6-------------------|
D|--7-9-7-6-4~-----7-7-7-9-7----12-11-9-7~--|
A|------------------------------------------|
E|------------------------------------------|

Pre-Refrão: 

F#m
       Shoot fire am I simple
                       A  D  Bm  E
Stonewashed up and so so

F#m
    I'd take one in the temple

I'd take one for you

Matt:
E|--------5------7------5---------|
B|----5------5------5------5---5--| (2x)
G|--6---6------6------6------6----|
D|--------------------------------|
A|--------------------------------|
E|--------------------------------|

Refrão:

A                   D
  I'd take one in the temple (temple)
Bm                  E
   I'd take one for you

A                   D
  I'd take one in the temple (temple)
Bm                  E
   I'd take one for you

Matt:
E|--------5------7------5---------|
B|----5------5------5------5---5--| 
G|--6---6------6------6------6----|
D|--------------------------------|  (4x)
A|--------------------------------|
E|--------------------------------|

Segunda Parte:

   A          D
I feel all a mess now 
Bm      E              A     D  Bm  E
   I'm tossed in the scatter

     A                  D
And your eyes keep on shifting 
Bm         E               A     D  Bm  E
   To the boys that don't matter

             A           D
I've got my hands in my pockets
Bm           E          A      D  Bm  E
   And I'm crossing my fingers

Matt:                
E|------------------------------------------------------------|
B|------------------------------------------------------------|
G|-----------------6--6-6-6-----------------------------------|
D|--777-9-7-6-4~-----7-7-7-9-7----/12-11--9-7-777-9-9999999~--|
A|------------------------------------------------------------|
E|------------------------------------------------------------|

Pre-Refrão: 

F#m
    I'd take one in the temple

I'd take one for you


Refrão:

A                   D
  I'd take one in the temple (temple)
Bm                  E
   I'd take one for you

A                   D
  I'd take one in the temple (temple)
Bm                  E
   I'd take one for you

Matt:
E|--------5------7------5---------|
B|----5------5------5------5---5--| 
G|--6---6------6------6------6----|
D|--------------------------------| (4x)
A|--------------------------------|
E|--------------------------------|

Solo 2x: A  D  Bm  E

E|-----------------------------------------------------------|
B|-----------------------------------------------------------|
G|--/6-4-9-6-4---6-4~------2-----5-----7------10--10b12-10---|
D|--------------7-------2/4---4/6---6/9---9/11---------------|
A|-----------------------------------------------------------|
E|-----------------------------------------------------------|

E|-------------------------------------------------|
B|--7---7-7----7-7----7-7----7---------------------|
G|----9---9b11---9b11---9b11---9-7-6-7-6-4-6-4-2~--|
D|-------------------------------------------------|
A|-------------------------------------------------|
E|-------------------------------------------------|

Passagem 2x: A5  F5  D5 

             A           F#m    D
I've got my hands in my pockets
    A             F#m       D
And I'm crossing my fingers

        A          F#m    D
I just want to be noticed
        A          F#m    D
I just want to be noticed

Matt:
E|--------9-------------9---------|
B|-----10---10-------10---10------| 
G|--11---------11-11--------------|
D|--------------------------------| (8x)
A|--------------------------------|
E|--------------------------------|

Intro Riff:

     A            A9    A              A9
E|--0--0--0-0-0--0--|--0--0-0--0-0-0--0-0---|
B|--2--2--2-2-2--0--|--2--2-2--2-2-2--0-0---| 
G|--2--2--2-2-2--2--|--2--2-2--2-2-2--2-2---|
D|--2--2--2-2-2--2--|--2--2-2--2-2-2--2-2---| (2x)
A|--0--0--0-0-0--0--|--0--0-0--0-0-0--0-0---|
E|------------------|-----------------------|

Refrão Final:

A                   D
  I'd take one in the temple (temple)
Bm                  E
   I'd take one for you

A                   D
  I'd take one in the temple (temple)
Bm                  E
   I'd take one for you

A                   D
  I'd take one in the temple
Bm                  E
   I'd take one for you

A                   D
  I'd take one in the temple (temple)
Bm                  E
   I'd take one for you

Matt:
E|--------5------7------5---------|
B|----5------5------5------5---5--| (4x)
G|--6---6------6------6------6----|
D|--------------------------------|
A|--------------------------------|
E|--------------------------------|

Solo Final:

E|-------------------------------------------------|
B|-------------------------------------------------|
G|--------------------------6--6-6-6---------------|
D|--797-9/11-9-7-6-4~--\15----7-7-7-9-7-999-12-11--|
A|-------------------------------------------------|
E|-------------------------------------------------|

E|------------------------------------------------|
B|------------------------------------------------|
G|------------------------------------------------|
D|--111111-14-14-141414-14-12-11-12-11-9-11-9-7~--|
A|------------------------------------------------|
E|------------------------------------------------|

Final: A5  F5  D5
Colaboración y revision:
  • Fernando Junior
491 reproducciones
    • ½ Tom
    • A
    • Bb
    • B
    • C
    • Db
    • D
    • Eb
    • E
    • F
    • F#
    • G
    • Ab
  • Adicionar à lista

    0 comentarios

    Mostrar mais comentários

    ¿Conseguiste tocar?

    3 Tocaron 0 Ainda não

    Grave um vídeo tocando Temple e mande pra gente!

    00:00 / 00:00
    outros vídeos desta música
    repetir qualidade Automático
    Outros vídeos desta música
    00:00 / 00:00
    Automático
    OK