Cifra Club

The Immortals

Kings Of Leon

Tablatura: Principal (guitarra)
Tom: E
Introdução:


(E - G#m/D#)

E|--------------------------------------------|
B|--12--12---12-12----12--12---12-------------|
G|----13--13------------13--13----------------|
D|--------------------------------------------|
A|--------------------------------------------|
E|--------------------------------------------|

E|--------------------------------------------|
B|--12--12---12-12----12--12------------------|
G|----13--13------------13--13----------------|
D|--------------------------------------------|
A|--------------------------------------------|
E|--------------------------------------------|

Guitarra com eco: E - G#m/D#

Guitarra de fundo (segue em boa parte da música):
E|----------------------------------|
B|----------------------------------|
G|----------------------------------|
D|------------------------2---------|
A|-----4-4--4-4-4--4-4--4-----------|
E|----------------------------------|




The open road, the path of greatness

It's at your fingers

Go be the one that keeps on fighting

Go be the stranger
C#m
Just put your foot in front' the other
A                   B
Crow like the rooster
C#m
We are allowed to get us something
A              B
Free as a danger

I say


E|- G#m - A

E
Spinnin' on the streets of stars
G#m        A
And ride away
E
Find out what you are
G#m       A
Face to face


C#m
The windows are

The perfect picture
A                   B
They're always changin'
C#m
Go on, get lost

Jump in the waters
A                 B
When they are raging

I say


E|- G#m - A

E
Spinnin' on the streets of stars
G#m        A
And ride away
E
Find out what you are
G#m       A
Face to face
E
Once you've had enough
G#m    A
Carry on
E
Don't forget to love
G#m            A
'Fore you're gone


(E  -  G#m/D#) 2x

(E  - G#m - A) 2x

E|--------------------------------------------|
B|--55555555-7777-9999-44444444-55555555------|
G|--44444444-6666-8888-44444444-66666666------|
D|--------------------------------------------|
A|--------------------------------------------|
E|--------------------------------------------|


E
Spinnin' on the streets of stars
G#m        A
And ride away
E
Find out what you are
G#m       A
Face to face
E
Once you've had enough
G#m    A
Carry on
E
Don't forget to love
G#m            A
'Fore you're gone


--
Riff do refrão:

E|----------------------------------------------------|
B|---12-14------12------------------------------------|
G|-----------14------13-14---11-13------11------------|
D|-----------------------------------14------13---14--|
A|----------------------------------------------------|
E|----------------------------------------------------|
reproducciones 123
Acordes para:

    0 comentarios

    mostrar más comentarios

    ¿Conseguiste tocar?

    1 tocaron 0 aún no

    ¡Graba un vídeo tocando The Immortals y envianoslo!

    00:00 / 00:00
    outros vídeos desta música
    repetir qualidade Automático
    Outros vídeos desta música
    00:00 / 00:00
    Automático
    OK