Cifra Club

Wait for me

Kings Of Leon

Tablatura: Principal (guitarra)
Tom: A
E|-----------------------------------------------------------------------|
B|-----------------------------------------------------------------------|
G|-----------------------------------------------------------------------|
D|-------0---------0-----(x2)-------0---------0-----------0---------0----|
A|----4-----4----4----4----------4-----4----4----4-----4-----4----4----4-|
E|-5-----------5--------------2-----------2---------0-----------0--------|


E|-------------------------------------------------------------------------|
B|-------5---------5-----------5---------5-----------5---------5-----------|
G|----6-----6----6----6-----6-----6----6----6-----6-----6----6----6--------|
D|-7-----------7-----------------------------------------------------(X2)--|
A|-----------------------4-----------4-------------------------------------|
E|---------------------------------------------0-----------0---------------|

E|-----------------------------------------------------------------------|
B|-----------------------------------------------------------------------|
G|-----------------------------------------------------------------------|
D|-------0---------0-----(x2)-------0---------0-----------0---------0----|
A|----4-----4----4----4----------4-----4----4----4-----4-----4----4----4-|
E|-5-----------5--------------2-----------2---------0-----------0--------|


E|-------------------------------------------------------------------------|
B|-------5---------5-----------5---------5-----------5---------5-----------|
G|----6-----6----6----6-----6-----6----6----6-----6-----6----6----6--------|
D|-7-----------7-----------------------------------------------------(X2)--|
A|-----------------------4-----------4-------------------------------------|
E|---------------------------------------------0-----------0---------------|

Ponte:
E|---------------------------------------------------------------------------|
B|-7-------------------------------------------------------------------------|
G|-7---x-9----11----6---x-7-----------7---x-9----11----9-9-9-9-9-9-9-9-------|
D|-7---x-9----11----7---x-7----4------7---x-9----11----9-9-9-9-9-9-9-9(X2)-0-|
A|-5---x-7----9-----7---x-5----4------5---x-7----9-----7-7-7-7-7-7-7-7-----4-|
E|------------------5----------2-----------------------0-0-0-0-0-0-0-0-----5-|


E|-------------------------------------------------------------------------|
B|-------5---------5-----------5---------5-----------5---------5-----------|
G|----6-----6----6----6-----6-----6----6----6-----6-----6----6----6--------|
D|-7-----------7-----------------------------------------------------(X2)--|
A|-----------------------4-----------4-------------------------------------|
E|---------------------------------------------0-----------0---------------|


A                      A                     F#m       E
Gona open my heart, out of the scares and listen up
A                      A                     F#m       E
Gonna do what I'm told, though im told and listen up
A                      A                     F#m       E
Take a shot in the rain, one for the pain and listen up
        E6               D         A
I travelled all the way

Refrão:

E            E
Wait for me, wait for me
D                        A
Oh, It's all better now, It's all better now
E            E
Wait for me, wait for me

Verso:

A                      A                     F#m         E
Gonna start in the blow, something to blow and give it up
A                      A                     F#m         E
I saw the surprise, the look in your eyes, and gave it up
A                      A                     F#m         E
Gonna be who I am, be who I am, and give it up
E6                        D         A
I travelled all the way

Refrão:

E            E
Wait for me, wait for me
D                        A
Oh, It's all better now, It's all better now
E            E
Wait for me, wait for me
D                        A
Oh, It's all better now, It's all better now
E            E
Wait for me, wait for me
D                        A
Oh, It's all better now, It's all better now
E            E
Wait for me, wait for me

Ponte: D   E   F#m
       A   E   F#m
       D   E   F#m
       E   E6
       A   A   F#m  E
       A   A   F#m  E

Refrão:

D                        A
Oh, It's all better now, It's all better now
E            E
Wait for me, wait for me
D                        A
Oh, It's all better now, It's all better now
E            E
Wait for me, wait for me
D                        A
Oh, It's all better now, It's all better now
E            E
Wait for me, wait for me
reproducciones 1.129
Acordes para:
    Colaboración y revision:
    • Jasmin Mattos
    • Jonathan Pessoa

    0 comentarios

    mostrar más comentarios

    ¿Conseguiste tocar?

    10 tocaron 0 aún no

    ¡Graba un vídeo tocando Wait for me y envianoslo!

    00:00 / 00:00
    outros vídeos desta música
    repetir qualidade Automático
    Outros vídeos desta música
    00:00 / 00:00
    Automático
    OK