Cifra Club

A World Without Heroes

Kiss

Tablatura: Principal (guitarra)
Tom: G
      H.N.
E|---!12!------------------------------------------12-10~--------------------|
B|---!12!---------------10-12~---------------10-12----------12-10------12~---|
G|---!12!------9--11-12-------------9--11-12----------------------12---9~----|
D|---------------------------------------------------------------------------|
A|---------------------------------------------------------------------------|
E|---------------------------------------------------------------------------|

              "A world without heroes.."   "Is like a world without sun.."
E|7------------7~----------------2---------7--------------------------2------|
B|---8---------8~----------------3---------8--------------------------3------|
G|------7------9~----------------4---------9--------------------------4------|
D|---------9---9~----------------4---------9--------------------------4------|
A|-------------7~----------------2---------7--------------------------2------|
E|-------------0~--------------------------0---------------------------------|

  "You can't look up to anyone.."   "Without heroes"    "..a world without he
E|----------------0---------------2--------------------7---------------------|
B|----------------1---------------3--------------------8---------------------|
G|----------------2---------------4--------------------9---------------------|
D|----------------2---------------4--------------------9---------------------|
A|----------------0---------------2--------------------7---------------------|
E|-----------------------------------------------------0---------------------|

  roes......is like a never ending race....like a time without a place....a p
E|-2--------7------------------2--------------------0----------------2-------|
B|-3--------8------------------3--------------------1----------------3-------|
G|-4--------9------------------4--------------------2----------------4-------|
D|-4--------9------------------4--------------------2----------------4-------|
A|-2--------7------------------2--------------------0----------------2-------|
E|----------0----------------------------------------------------------------|

  ointless thing devoid of grace.."               "..you dont know what you'r
E|-------------0---------------------0----2-2--------------------------------|
B|-------------1---------------------1----3-3--------------------------------|
G|-------------0---------------------0----2-2--------------------------------|
D|-------------2---------------------2----0-0--------------------------------|
A|-------------3---------------------3----0-0--------------------------------|
E|---------------------------------------------------------0---0---0---0-----|

  e after....of is something's after you.."     "you don't know why...you don
E|--7----2---------------------------7----2-----------2---------------------0|
B|--8----3---------------------------8----3-----------3---------------------1|
G|--9----2---------------------------9----2-----------2---------------------0|
D|--9----0---------------------------9----0-----------0---------------------2|
A|--7----0---------------------------7----0-----------0---------------------3|
E|--0---------------0---0---0---0----0---------------------------------------|

  't know...a world without heroes"
E|---------------------------------------|
B|----------------------------7/9---9----|
G|----------------------------7/9---9----|
D|----------------------------7/9---9----|
A|----------------------------5/7---7----|
E|---------------------------------------|

    slight variation-2nd verse
    "..a world without heroes.."                  "is like a bird without 
E|----------7----------------------7----------------------7------------------|
B|----------------8----------------------7----------------------8------------|
G|----------------------9----------------------7----------------------9------|
D|-------9-----9-----9----------7-----7-----7----------9-----9-----9---------|
A|----7----------------------5----------------------7----------------------5-|
E|---------------------------------------------------------------------------|

 wings.."              "or a bell that never rings.."                     
E|----7------------------------5-------------------------7------------------0|
B|----------7------------------------5-------------------------7------------1|
G|----------------7------------------------5-------------------------7------0|
D|-7-----7-----7------------2-----2-----2-------------7-----7-----7---------2|
A|-----------------------0-------------------------5------------------------3|
E|---------------------------------------------------------------------------|

 sad and useless thing.."      to chorus
E|-----------------0----2-2------------|
B|-----------------1----3-3------------|
G|-----------------0----2-2------------|
D|-----------------2----0-0------------|
A|-----------------3----0-0------------|
E|-------------------------------------|

Solo:

E|---------------------------------------------------------------------------|
B|---15b~~---15b~-15--------15-----------------------------------------------|
G|---------------------14b~~~~~14b/14-12-14b-------12-14--14b/14-12-14~------|
D|--------------------------------------------12/14-----------------------12/|
A|---------------------------------------------------------------------------|
E|---------------------------------------------------------------------------|

E|--------------------------------14--15--14---------------------------------|
B|-------------------15b-15b~~----------------15------15--17b~---------------|
G|--12-14--14b/14-12------------------------------14-------------------------|
D|14-------------------------------------------------------------------------|
A|--------------------------------------------------------------------10/12/14
E|---------------------------------------------------------------10/12-------|

E|---------------------------------------------------------------------------|
B|---------------------------------------------------------------------------|
G|---------------------12--14b-14b~-----------------------------------12--14b|
D|---14b/14-12---12/14------------------------------14b/14-12----12/14-------|
A|------------14---------------------------10/12/14----------14--------------|
E|------------------------------------10/12----------------------------------|

E|------------------------------------------------12--14--15--15-15-15-14--17b
B|-15-------10/12-12~--12/13-13/15--15b--15----15----------------------------|
G|----14---------------------------------------------------------------------|
D|---------------------------------------------------------------------------|
A|---------------------------------------------------------------------------|
E|---------------------------------------------------------------------------|
         
E|--17---17-15--17b~~|
B|-------------------|
G|-------------------|
D|-------------------|
A|-------------------|
E|-------------------|
reproducciones 755
Acordes para:
    Composição: Bob Ezrin / Gene Simmons / Lou Reed / Paul Stanley Colaboración y revision:
    • Wesley Silva

    0 comentarios

    mostrar más comentarios

    ¿Conseguiste tocar?

    3 tocaron 0 aún no

    ¡Graba un vídeo tocando A World Without Heroes y envianoslo!

    00:00 / 00:00
    outros vídeos desta música
    repetir qualidade Automático
    Outros vídeos desta música
    00:00 / 00:00
    Automático
    OK