Cifra Club

All Hells Breakin' Loose

Kiss

Tab de bajo: Principal
reproducciones 16
/    = slide up
\    = slide down
b    = bend (whole step)
b^   = bend (1/2 step)
b^^  = bend (1 1/2 steps)
pb   = pre-bend
r    = release-bend
r^   = release-bend half-step
h^   = hammer-on
p^   = pull-off
~    = Vibrato
*    = Natural Harmonic
#(#) = Trill
**   = Artificial Harmonic
x    = Muted String (Palm Muting)
X    = Muted String (Fretboard Muting)
(\)  = Dive w\bar
(/)  = Release w\bar
Tp   = Tap w\plectrum

(intro)

G|-------------------------------------------------12-|
D|------------------------------------------10h^12----|
A|--------------------1-------------------------------|
E|--3------1---3----------3------1---3/---------------|

G|----------------------------------------------------|
D|----------------------------------------------------|
A|------------0-1-0-3---------------1-----------------|
E|--3-3-3-3-3-------------3-3-3-3-3---3-1-------------|
    <- 3x->               <- 3x->

(rhythm Fig. 1)
G|----------------------------------------------------|
D|----------------------------------------------------|
A|----------------------------------------------------|
E|--3-3-3-3-3-0-1-3-----------------------------------|
    <- 3x->

(rhythm Fig. 2)
G|----------------------------------------------------|
D|----------------------------------------------------|
A|-3-1-3-----------3-1-0-1---3------------------------|
E|-------3---0-1-3---------3---3-1-3-1----------------|
   <- 2x->         <------- 2x ------>

(rhythm Fig. 3)
G|----------------------------------------------------|
D|-----5-5-5------------------------------------------|
A|---------------------------------3---0-1------------|
E|-4-3---------3-4-3-1---0-1-3-4-3--------------------|

(rhythm Fig. 4)
G|----------------------------------------------------|
D|----------------------------------------------------|
A|-----------0-1p^0h^1-------------1-3p^1h^3----------|
E|-3-3-3-3-3-------------3-3-3-3-3--------------------|
   <- 3x->               <- 3x->       

G|----------------------------------------------------|
D|-----------0h^3p^0----------------------------------|
A|-------------------1-------------1------------------|
E|-3-3-3-3-3-------------3-3-3-3-3---1-3--------------|
   <- 3x->               <- 3x->       

(rhythm Fig. 5)
G|----------------------------------------------------|
D|----------------------------------------------------|
A|----------------------------------------------------|
E|-3-3-0-1-3------------------------------------------|

(rhythm Fig. 6)
G|----------------------------------------------------|
D|-----5-5-5-------------------------------------3----|
A|---------------------------------3-3-3--------------|
E|-4-3---------3-4-3-1---0-1-3-4-3---------3-4-3------|

G|----------------------------------------------------|
D|-----5----------------------------------------------|
A|------------------------------3---0-1---------------|
E|-4-3------3-4-3-1---0-1-3-4-3-----------------------|

(rhythm Fig. 7)
G|----------------------------------------------------|
D|----------------------------------------------------|
A|--------------------1-------------------1-0-1-0-----|
E|--3---------------------3------1---3/-----------3---|

(rhythm Fig. 8)
G|----------------------------------------------------|
D|----------------------------------------------------|
A|-----------0-1p^0h^1-------------1-3p^1h^3----------|
E|-3-3-3-3-3-------------3-3-3-3-3--------------------|
   <- 3x->               <- 3x->       

G|----------------------------------------12----------|
D|-----------0h^3p^0---------------10h^12----10h^12---|
A|-------------------1--------------------------------|
E|-3-3-3-3-3-------------3-3-3-3-/--------------------|
   <- 3x->               <- 3x->
Compositor: Eric Carr / Gene Simmons / Paul Stanley / Vinnie Vincent Colaboración y revision:
  • bruno seidi

0 comentarios

mostrar más comentarios

¿Conseguiste tocar?

0 tocaron 0 aún no

¡Graba un vídeo tocando All Hells Breakin' Loose y envianoslo!

00:00 / 00:00
outros vídeos desta música
repetir qualidade Automático
Outros vídeos desta música
00:00 / 00:00
Automático
OK