Cifra Club

All The Way

Kiss

Tablatura: Principal (guitarra)
reproducciones 65
Tono: C
e|---------------------------------------------------------------------------|
B|---------------------------------------------------------------------------|
G|-----------------5-----------------------------------------------5---------|
D|-2----7----------5----5-----2----7---------5----2-----7----------5----5----|
A|-0----5---------------3-----0----5---------3----0-----5---------------3----|
E|-----------2--3~-------------------------------------------2--3~-----------|
                                                                      

  repeat for verses                "And you just keep..."
e|-------------------------------|--------00--00---------------------|
B|-------------------------------|--------00--00---------------------|
G|-------------------------------|---999--99--99--------9-9-9---9-9--|
D|---4--4----4--4------7--7--7-7-|---999--99--99--------7-7-9---7-9--|
A|---2--2----2--2------5--5--5-5-|---777--77--77--------7-7-7---7-7--|
E|-------------------------------|---0----00--00---------------------|
                                           repeat similar pattern


   solo
e|-------------------------------------------------------20b~~-20b/20-17--17-|
B|-----20b~-20b~-20b~-20b~------17--17--17--19/17/19/17-----------------20---|
G|------------------------------17--17--17--19/17/19/17----------------------|
D|--------------------------19-----------------------------------------------|
A|---------------------------------------------------------------------------|
E|---------------------------------------------------------------------------|


e|---17-17-------------------------------------------------------------------|
B|20b------20-17-20-17-----20---------------------------------11/12/11/10----|
G|---------------------19b~~-19b/19-17/19/17--17-19b/19/17---------------11-11
D|------------------------------------------19------------19-----------------|
A|---------------------------------------------------------------------------|
E|---------------------------------------------------------------------------|


e|---------------------------------------------------------------------------|
B|----------------------------------------5--5---5-8----5--5---5-8----5--5---|
G|-/12/11/9-----7/8/7/5-------------------7b---7-----7--7b---7-----7--7b---7-|
D|---------12----------7-7/8/7/5---------------------------------------------|
A|------------------------------7--------------------------------------------|
E|---------------------------------------------------------------------------|


e|---------------------------------------------------------------------------|
B|5-8----5--5---5--8----5--5---8-5----5--5---8-5-----------------------------|
G|----7--7b---7------7--7b---7-----7--7b---7-----7--5/7-7b(10)~---7/5---5----|
D|--------------------------------------------------------------------7---7/5|
A|---------------------------------------------------------------------------|
E|---------------------------------------------------------------------------|


e|---------------------------------------------------------------------------|
B|-----------------------5--------7--7/10/7-7--7/10/7-7---10--10/13/10-10--10|
G|---5---------5-------5-5--------9b--------9b--------9b--12b----------12b---|
D|/7-----7/5/7---7/5/7-------------------------------------------------------|
A|---------------------------------------------------------------------------|
E|---------------------------------------------------------------------------|


e|--------------------------------|
B|/13/10-10--10/13/10-10--10/13/10|
G|-------12b----------12b---------|
D|--------------------------------|
A|--------------------------------|
E|--------------------------------|
Acordes para:
    Compositor: Gene Simmons Colaboración y revision:
    • Ivan Neto

    0 comentarios

    mostrar más comentarios

    ¿Conseguiste tocar?

    0 tocaron 0 aún no

    ¡Graba un vídeo tocando All The Way y envianoslo!

    00:00 / 00:00
    outros vídeos desta música
    repetir qualidade Automático
    Outros vídeos desta música
    00:00 / 00:00
    Automático
    OK