Cifra Club

Cold Gin

Kiss

Tablatura: Principal (guitarra)
Tom: C
Intro 

----------------------------------------------
----------------------------------------------
--9---9---7---7---7---7--7-/-9---9------
--7---7---5---4---5---4--5-/-7---7------
--0---0---0---0---0---0--0-/------0------
----------------------------------------------

verso

-----------------------------
---------------3---3--------
--2---2-------0---0-------
--2---2-------0---0-------repeat into
--0---0-------0---0-------
-----------------------------


----------------------------------------------
----------------------------------------------
----------------------------------------------
-9---9-------9---9--x--x--12----------9---9----------
-7---7-------7---7--x--x--10---12----7---7-slide-
------------------------------------10---------


----------------------------------------------
--12---12---(bend the 14 up a step)-
--14---14--------------------------------------
----------------------------------------------
----------------------------------------------
----------------------------------------------


-12h15p12---------------------------------------------
-----------------15--12h15p12-----------------------
---------------------------------------14--12h14p12-
----------------------------------------------
----------------------------------------------
----------------------------------------------

----------------------------------------------
----------------------------------------------
----------------------------------------------
-14-12h14p14---------------------------
---------------------14---12---12---------
---------------------------------------------


-----------12-------------12------------12----------
------12-------------12------------12-------12slide
-13-------------14------------15--------------------
----------------------------------------------
----------------------------------------------
----------------------------------------------


----------------------------------------------
----------------------------------------------
----------5---5---------------------------------
-5---5---5---5-----------------------------------
-5---5---3---3---3--3-2-3--2--3--3-2-3-----
-3---3-----------------------------------------1-

----------------------------------------------
----------------------------------------------
----------5---5---------------------------------
-5---5---5---5-----------------------------------
-5---5---3---3---3-2-3-2-3-2-3-2-3-2-3-----
-3---3-----------------------------------------3-

----------------------------------------------
----------------------------------------------
-----------7---7--------------------------------
--7---7---7---7-----------------------------------
--7---7---5---5---5--5-4-5--4--5--5-4-5----
--5---5----------------------------------------3-

----------------------------------------------
----------------------------------------------
-----------7---7--------------------------------
--7---7---7---7-----------------------------------
--7---7---5---5---5-4-5-4-5-4-5-4-5-4-5-----
--5---5--------------------------------------------3

----------------------------------------------
----------------------------------------------
-9---9----9--------9----------9------------
-9---9----9h11---9h11----9-------------
-7---7----------------------------------------
----------------------------------------------

---------------------------
---------------------------
-9---7---6---------------
-9---7---7---------------
-7---5---4---------------
---------------------------
reproducciones 326
Acordes para:
    Composição: Ace Frehley Colaboración y revision:
    • lucas oliveira

    0 comentarios

    mostrar más comentarios

    ¿Conseguiste tocar?

    0 tocaron 0 aún no

    ¡Graba un vídeo tocando Cold Gin y envianoslo!

    00:00 / 00:00
    outros vídeos desta música
    repetir qualidade Automático
    Outros vídeos desta música
    00:00 / 00:00
    Automático
    OK