Cifra Club

Danger

KISS

Cifrado: Principal (guitarra y guitarra eléctrica)
tono: D
Key:
/    = slide up
\    = slide down
b    = bend (whole step)
b^   = bend (1/2 step)
b^^  = bend (1 1/2 steps)
pb   = pre-bend
r    = release-bend
t    = tap with righthand finger
h    = hammer-on
p    = pull-off
~    = Vibrato
*    = Natural Harmonic
#(#) = Trill
**   = Artificial Harmonic
x    = Dead notes (no pitch)
P.M. = Palm mute (- -> underneath indicates which notes)
(\)  = Dive w\bar
(/)  = Release w\bar
Tp   = Tap w\plectrum




Rhythm Fig. 1

E |--0--0--0--0--0--0--0--0--0--0--0--0--0--0--0--0--------------|
B |-/5--5--5--3--3--3-/5--5--5--5--5--5--5--5--5--5\-------------|
G |--------------------------------------------------------------|
D |--------------------------------------------------------------|
A |--------------------------------------------------------------|
E |--------------------------------------------------------------|
  < - - - 6x - - - >


Rhythm Fig. 2 (P.M. on open 6th)

E |--------------------------------------------------------------|
B |-----------8-------------10-------------12-------14---12------|
G |-----------9-------------11-------------12-------14---12------|
D |-----------9-------------11-------------12-------14---12------|
A |-----------7-------------9--------------10-------12---10------|
E |--0--0--0-------0--0--0--------0--0--0------------------------|

E |--------------------------------------------------------------|
B |-----------8-------------10-------------12-------12---10------|
G |-----------9-------------11-------------12-------12---11------|
D |-----------9-------------11-------------12-------12---11------|
A |-----------7-------------9--------------10-------10---9-------|
E |--0--0--0-------0--0--0--------0--0--0------------------------|




Rhythm Fig. 3 (P.M. on open 6th)

E |--------------------------------------------------------------|
B |-----------8-------------10-------------12-------14---12------|
G |-----------9-------------11-------------12-------14---12------|
D |-----------9-------------11-------------12-------14---12------|
A |-----------7-------------9--------------10-------12---10------|
E |--0--0--0-------0--0--0--------0--0--0------------------------|

E |--------------------------------------------------------------|
B |-----------8-------------10-------------12--------------------|
G |-----------9-------------11-------------12--------9----11-----|
D |-----------9-------------11-------------12--------9----11-----|
A |-----------7-------------9--------------10--------7----9------|
E |--0--0--0-------0--0--0--------0--0--0------------------------|



Rhythm Fig. 4


E |--------------------------------------------------------------|
B |--------------------------------------------------------------|
G |--12-----------------------------------------12----11----9----|
D |--12-----------------------------------------12----11----9----|
A |--10-----------------------------------------10----9-----7----|
E |--------------------------------------------------------------|

E |--------------------------------------------------------------|
B |--------------------------------------------------------------|
G |--11----9-----------------------------------------------------|
D |--11----9-----------------------------------------------------|
A |--9-----7-----------------------------------------------------|
E |--------------------------------------------------------------|

E |--------------------------------------------------------------|
B |--12---12---12---12-------------12---12---12------------------|
G |--12---12---12---12-------------12---12---12---12----11----9--|
D |--12---12---12---12-------------12---12---12---12----11----9--|
A |--10---10---10---10-------------10---10---10---10----9-----7--|
E |-----------------------0--0--0--------------------------------|
                         P.M. - >



E |--------------------------------------------------------------|
B |--------------------------------------------------------------|
G |--11----9-------------------------------------------9---11----|
D |--11----9-------------------------------------------9---11----|
A |--9-----7-------------------------------------------7---9-----|
E |--------------------------------------------------------------|

E |----------------------------------(0)-------------------------|
B |----------------------------------(0)-------------------------|
G |--2--------------------------------4--------------------------|
D |--2--------------------------------5--------------------------|
A |--0-----------------0----2----0----3--------------------------|
E |--------------------------------------------------------------|

E |--------------------------------------------------------------|
B |--12---12---12---12-------------12---12---12------------------|
G |--12---12---12---12-------------12---12---12---12----11----9--|
D |--12---12---12---12-------------12---12---12---12----11----9--|
A |--10---10---10---10-------------10---10---10---10----9-----7--|
E |-----------------------0--0--0--------------------------------|
                         P.M. - >



E |--------------------------------------------------------------|
B |--------------------------------------------------------------|
G |--11----9-----------------------------------------------------|
D |--11----9-----------------------------------------------------|
A |--9-----7-----------------------------------------------------|
E |--------------------------------------------------------------|





Rhythm Fig. 5

E |--------------------------------------------------------------|
B |--5-------------------------5---------------4-----------------|
G |--5-------------------------4---------------4-----------------|
D |--5-------------------------4---------------4-----------------|
A |--3-------------------------2---------------2-----------------|
E |--------------------------------------------------------------|

E |--------------------------------------------------------------|
B |--5-----------------------------------------------------------|
G |--5-------------------------9--------7------4-----------------|
D |--5-------------------------9--------7------4-----------------|
A |--3-------------------------7--------5------2-----------------|
E |--------------------------------------------------------------|


End 1

E |--------------------------------------------------------------|
B |--------------------------------------------------------------|
G |----------x-7---x-7-------------------------------------------|
D |----------x-7---x-7-------------------------------------------|
A |----------x-5---x-5-------------------------------------------|
E |--------------------------------------------------------------|


End 2

E |--------------------------------------------------------------|
B |--------------------------------------------------------------|
G |--4--------4--------4----------------x-7---x-7----------------|
D |--4--------4--------4----------------x-7---x-7----------------|
A |--2--------2--------2----------------x-5---x-5----------------|
E |-----------------------------15\------------------------------|



Rhythm Fig. 6 (P.M. on open 6th)

E |--------------------------------------------------------------|
B |--------------------------------------------------------------|
G |-----------9-------------9-------------9-------------7--------|
D |-----------9-------------9-------------9-------------7--------|
A |-----------7-------------7-------------7-------------5--------|
E |--0--0--0-------0--0--0-------0--0--0-------0--0--0-----------|

E |--------------------------------------------------------------|
B |--------------------------------------------------------------|
G |-----------9-------------9-------------9-------7----7---------|
D |-----------9-------------9-------------9-------7----7---------|
A |-----------7-------------7-------------7-------5----5---------|
E |--0--0--0-------0--0--0-------0--0--0-------0-----------------|




Rhythm Fig. 7a

E |--------------------------------------------------------------|
B |--------------------------------------------------------------|
G |--------------------------------2-----------------------------|
D |--------------------------------2-----------------------------|
A |--3----2----0----2----0---------0-----------------------------|
E |---------------------------3----------------------------------|

E |--------------------------------------------------------------|
B |--------------------------------------------------------------|
G |--2-----------------------7-----------------------------------|
D |--2-----------------------7-----------------------------------|
A |--0--------2----0---------5-----------------------------------|
E |---------------------3----------------------------------------|



Rhythm Fig. 7b

E |--------------------------------------------------------------|
B |--------------------------------------------------------------|
G |--------------------------------2-----------------------------|
D |--------------------------------2-----------------------------|
A |--3----2----0----2----0---------0-----------------------------|
E |---------------------------3----------------------------------|

E |--------------------------------------------------------------|
B |--------------------------------------------------------------|
G |-------------------------------------------------4------------|
D |--------------------------------3----------------4------------|
A |--3----2----0----2----0---------3----------------2------------|
E |---------------------------3----1-----------------------------|



Rhythm Fig. 7c

E |--------------------------------------------------------------|
B |--------------------------------------------------------------|
G |--------------------------------2-----------------------------|
D |--------------------------------2----------------2------------|
A |--3----2----0----2----0---------0----------------2------------|
E |---------------------------3---------------------0------------|




Rhythm Fig. 8 (P.M. on open 6th)

E |-------------------------------------------------------------|
B |-------------------------------------------------------------|
G |-----------9-------------9-------------9----7----11----12----|
D |-----------9-------------9-------------9----7----11----12----|
A |-----------7-------------7-------------7----5----9-----10----|
E |--0--0--0-------0--0--0-------0--0--0------------------------|

E |-------------------------------------------------------------|
B |-------------------------------------------------------------|
G |-----------9-------------9-------------9----12----11----7----|
D |-----------9-------------9-------------9----12----11----7----|
A |-----------7-------------7-------------7----10----9-----5----|
E |--0--0--0-------0--0--0-------0--0--0------------------------|

E |-------------------------------------------------------------|
B |-------------------------------------------------------------|
G |-----------9-------------9-------------9----7----11----12----|
D |-----------9-------------9-------------9----7----11----12----|
A |-----------7-------------7-------------7----5----9-----10----|
E |--0--0--0-------0--0--0-------0--0--0------------------------|


Riff 1

E |--7p-5-----5--------------------------------------------------|
B |--------8-----8--7--8--7--5--7--5-----5~----------------------|
G |-----------------------------------7--------------------------|
D |--------------------------------------------------------------|
A |--------------------------------------------------------------|
E |--------------------------------------------------------------|
 |                                                              |
 |                                                              |
 |                                                              |
E |--------------------------------------------------------------|
B |--8--7--5--7--5-----5-----------------------------------------|
G |-----------------7-----7--5--7--5--4--5~----------------------|
D |--------------------------------------------------------------|
A |--------------------------------------------------------------|
E |--------------------------------------------------------------|


Riff 2 (Let ring)

E |--7------------------7----------------------------------------|
B |-----------5------------------5-------------------------------|
G |--------------------------------------------------------------|
D |--------------------------------------------------------------|
A |--------------------------------------------------------------|
E |--------------------------------------------------------------|
   < - - - - - - - 2x - - - - - - >


Riff 3

E |--------------------------------------------------------------|
B |--------------------------------------------------------------|
G |--------------------x-7---x-7---------------------------------|
D |--------------------x-7---x-7---------------------------------|
A |--2--2--2--2--2--2--x-5---x-5---------------------------------|
E |--------------------------------------------------------------|
    < - - - 3x - - >
    P.M. - - - - - >



Riff 4 (Keyboard arranged for guitar)

E |--15----14----12----14----12----------------------------------|
B |--------------------------------15----12~---------------------|
G |--------------------------------------------------------------|
D |--------------------------------------------------------------|
A |--------------------------------------------------------------|
E |--------------------------------------------------------------|



Interlude solo

E |--14b^~-------14b^--14--12------------------------------------|
B |----------------------------12(\)-----------------------------|
G |--------------------------------------------------------------|
D |--------------------------------------------------------------|
A |--------------------------------------------------------------|
E |--------------------------------------------------------------|




Solo

E |--14b^~---------------14b^~-----14b^-14-14b^-14-14b^-14-14b^--|
B |--------------------------------------------------------------|
G |--------------------------------------------------------------|
D |--------------------------------------------------------------|
A |--------------------------------------------------------------|
E |--------------------------------------------------------------|

E |--14-14b^-14-14b^-14--17b-----r17-------------------12--------|
B |----------------------------------17~---------15b------15p12--|
G |--------------------------------------------------------------|
D |--------------------------------------------------------------|
A |--------------------------------------------------------------|
E |--------------------------------------------------------------|

E |---------12----12---------------------------------------------|
B |------12----15----------15--------15--------15----------------|
G |--14b--------------14--------12--------11--------11b^----11r--|
D |--------------------------------------------------------------|
A |--------------------------------------------------------------|
E |--------------------------------------------------------------|

E |--------------------------------------------------------------|
B |--------------------------------------------------------------|
G |--9(\)--------------------------------------------------------|
D |--------------------------------------------------------------|
A |------------------------5p4---4h5h7-----------5p4---4h5h7-----|
E |---------------0--2--3------7--------0--2--3------7-----------|
 |                                                              |
 |                                                              |
 |                                                              |
E |--------------------------------------------------------------|
B |--------------------------------------------------------------|
G |--------------------------------------------------------------|
D |----------------------------------------------9p7----7h9h11---|
A |-------------------------------------7--9--10-----10----------|
E |--------------------------------------------------------------|

E |--------------------------------------------------------------|
B |-----------------------------------------------10b~-----------|
G |------------------------------9p7------7h9h11-----------------|
D |------------9p7------7h9h11--------11-------------------------|
A |--7--9--10-------10-------------------------------------------|
E |--------------------------------------------------------------|
 |                                                              |
 |                                                              |
 |                                                              |
E |--------------------------------------------------------------|
B |-----------------------------------------------15b~-----------|
G |--9--11-12-------------------12p11----11h12h14----------------|
D |-----------12p11----11h12h14-------14-------------------------|
A |-----------------14-------------------------------------------|
E |--------------------------------------------------------------|

E |--------------------------------------------------------------|
B |--------------------------------------------------10--10p8----|
G |---------------------------------7--9p7----7h9h11-------------|
D |----------------7--9p7----7h9h11--------11--------------------|
A |--9p7----7h9h10--------10-------------------------------------|
E |------10------------------------------------------------------|

E |-------------9----------------------------------------9-------|
B |-----8h10h12--------------------10--10p8-----8h10h12-----12~--|
G |--11------------9p7-----7h9h11-----------11-------------------|
D |---------------------11---------------------------------------|
A |--------------------------------------------------------------|
E |--------------------------------------------------------------|
 |                                                              |
 |                                                              |
 |                                                              |
E |------------------------------------------------------19-19~--|
B |---------------------------------17-19p17----17h19h20----20~--|
G |----------------18p16---16h18h19----------19------------------|
D |---------------------19---------------------------------------|
A |--------------------------------------------------------------|
E |--------------------------------------------------------------|






DANGER
Paul Stanley, Adam Michell

[Rhy. Fig 1]
[Rhy. Fig 2]
[Rhy. Fig 3]

[Rhy. Fig 4 w/ Riff 1]
In the night, I will be waitin'
Ready to go soon as the daylight is fadin'
In the night, my heart is beating
Out of control can't stop the way that I'm feeling

[Rhy. Fig 5]
I wanna know how far to go
Takin' my life in my hands
Out on my own fighting alone
Call me the desperate man

[Rhy. Fig 6]
Danger, danger
Give me danger, danger
[Rhy. Fig 7a]
Give me measures of pleasure and pain
Boiling the blood in my veins

[Rhy. Fig 6]
Danger, danger
Give me danger, danger
[Rhy. Fig 7b]
Give me nothing to stand in my way
I'll make the best of my days

[Rhy. Fig 3 w/ Interlude solo]

[Rhy. Fig 4]
In the night, oh, I can feel it
Time slips away if I can't pay I will steal it
In the night, I will be screamin'
Hour by hour livin' the life that I'm dreamin'

[Rhy. Fig 5 w/ End 1, Riff 2 and Riff 3]
Under the gun I'll be the one
Walking the edge of the knife
Taking the best, leaving the rest
I'm gonna run for my life

[Rhy. Fig 6]
Danger, danger
Give me danger, danger
[Rhy. Fig 7a]
Give me measures of pleasure and pain
Boiling the blood in my veins

[Rhy. Fig 6]
Danger, danger
Give me danger, danger
[Rhy. Fig 7b]
Give me nothing to stand in my way
I'll make the best of my days

[Solo over Rhy. Fig 2 (4x)]

[Rhy. Fig 5 w/ End 2 and Riff 2]
Oh, I wanna know how far to go
Takin' my life in my hands
Out on my own fighting alone
Call me the desperate man

[Rhy. Fig 6]
Danger, danger
Give me danger, danger
[Rhy. Fig 7c w/ Riff 4]
Give me fires that endlessly burn
I've passed the point of return

[Rhy. Fig 8]
Danger, danger
Danger, danger
Danger, danger
00:00 / 00:00
Otros videos de esta canción
Repetir
Otros videos de esta canción
Composición de Adam Mitchell / Paul Stanley
88 exhibiciones
    • ½ Tono
    • A
    • Bb
    • B
    • C
    • Db
    • D
    • Eb
    • E
    • F
    • F#
    • G
    • Ab
  • Agregar a la lista
    00:00 / 00:00
    OK