Cifra Club

Flaming Youth

Kiss

Tablatura: Principal (guitarra)
reproducciones 57
Tono: F#
(afinaçã Eb)

/    = slide up
\    = slide down
b    = bend (whole step)
b^   = bend (1/2 step)
b^^  = bend (1 1/2 steps)
pb   = pre-bend
r    = release-bend
r^   = release-bend half-step
h^   = hammer-on
p^   = pull-off
~    = Vibrato
*    = Natural Harmonic
#(#) = Trill
**   = Artificial Harmonic
x    = Muted String (Palm Muting)
X    = Muted String (Fretboard Muting)

(rhythm fig 1)

E|------3---3-3-3-------------------------------------|
B|------3---3-3-3-------------------------------------|
G|--2---0---2-0-2---X--X--2-2-------------------------|
D|--2---0---0-0-0---X--X--2-2-------------------------|
A|--0---X---X-X-X---X--X--0-0-------------------------|
E|------3---2-3-2-------------------------------------|

(rhythm fig 2)

E|----------------------------------------------------|
B|--8-8-7-7--8-8-7-7---2-2-2-3-2--8-8-7-7-------------|
G|--7-7-7-7--7-7-7-7---2-2-2-2-2--7-7-7-7-------------|
D|--7-7-7-7--7-7-7-7---2-2-2-2-2--7-7-7-7-------------|
A|---------------------0-0-0-0-0----------------------|
E|----------------------------------------------------|

(rhythm fig 2)

E|----------------------------------------------------|
B|--8-8-7-7--8-8-7-7---2-2-2-3-2--8-8-7-7-------------|
G|--7-7-7-7--7-7-7-7---2-2-2-2-2--7-7-7-7-------------|
D|--7-7-7-7--7-7-7-7---2-2-2-2-2--7-7-7-7-------------|
A|---------------------0-0-0-0-0----------------------|
E|----------------------------------------------------|
     

(rhythm fig 3)
E|----------------------------------------------------|
B|----------------------------------------------------|
G|--------------------2~--------------------------2---|
D|-----------------------4---2------------------------|
A|---------------3-4------------------------3--4------|
E|--0-3b~--0-3-4----------------3b^--0-3-4------------|

E|----------------------------------------------------|
B|----------------------------------------------------|
G|---------------------------2~-----------------------|
D|-4---2----------------------------------------------|
A|----------------------3-4---------------------------|
E|---------3b^--0--3-4--------------------------------|

(rhythm fig 4)
E|----------------------------------------------------|
B|----------------------------------------------------|
G|--------------------2---------------------------2---|
D|-----------------------4--------------------------4-|
A|---------------3-4------------------------3--4------|
E|--0-3b~--0-3-4----------------3b^--0-3-4------------|
                                 

E|----------------------------------------------------|
B|----------------------------------------------------|
G|--------------------2---------------------------2~--|
D|-----------------------4---2------------------------|
A|---------------3-4------------------------3--4------|
E|----3b~--0-3-4----------------3b^--0-3-4------------|

(riff 1)
E|--12/14\12~---10\12/10~-----------------------------|
B|--10/12\10~----8\10/8~------------------------------|
G|----------------------------------------------------|
D|----------------------------------------------------|
A|----------------------------------------------------|
E|----------------------------------------------------|

(riff 2)
E|---------------------------15----15----15-----15----|
B|---8------10--8----7---5---18b---18b---18b----18b---|
G|---7b-----12b-10b--9b--7b---------------------------|
D|----------------------------------------------------|
A|----------------------------------------------------|
E|----------------------------------------------------|

E|----------------------------------------------------|
B|----------------------------------------------------|
G|----5(7)--------------------------------------------|
D|----------------------------------------------------|
A|----------------------------------------------------|
E|----------------------------------------------------|

(solo)
      
E|----------------------------------------------------|
B|---------------------------8-8----------8-----------|
G|---7b~----------------7/9------9--9-9-9---9-9-9p^7--|
D|---------------------------------------------------9|
A|----------------------------------------------------|
E|----------------------------------------------------|

E|----------------------------------------------------|
B|--------------8-------------------------------------|
G|--9-9---9-9-9----9-9-9p^7----7h^9-9-9p^7---7--------|
D|--------------------------9--------------9---9------|
A|----------------------------------------------------|
E|----------------------------------------------------|

E|-10b-10b-10b-r10p^8---------------------------------|
B|--------------------13b-13b-13b-13b-13-13b-13-13b-13|
G|----------------------------------------------------|
D|----------------------------------------------------|
A|----------------------------------------------------|
E|----------------------------------------------------|

E|--------------------10---------10-------------------|
B|-10h^13p^10--8h^10-----10b-r10----10b-r10-----------|
G|----------------------------------------------------|
D|----------------------------------------------------|
A|----------------------------------------------------|
E|----------------------------------------------------|
                       

E|----------------------------------------------------|
B|--------8~-7~-5~-3~-2~-0----------------------------|
G|--9p^7--------------------2~------------------------|
D|----------------------------------------------------|
A|----------------------------------------------------|
E|----------------------------------------------------|

[(rhythm fig 1] w/ [(riff 1]
Whoo yeah
[(rhythm fig 1] w/ [(riff 1]

[(rhythm fig 1]
My parents think I'm crazy and they hate the things I do
I'm stupid and I'm lazy, man, if they only knew

[(rhythm fig 2] then [(rhythm fig 3]
How flaming youth will set the world on fire
Flaming youth, our flag is flying higher and higher and higher

[(rhythm fig 1]
My uniform is leather, and my power is my age
I'm gettin' it together to break out of my cage

[(rhythm fig 2] then [(rhythm fig 4]
'Cause flaming youth will set the world on fire
Flaming youth will set the world on fire
Flaming youth, our flag is flying higher and higher and higher

[Solo] w [(rhythm fig 4 continued from above]

Flaming youth will set the world on fire
Flaming youth will set the world on fire
Flaming youth will set the world on fire
[(rhythm fig 2a] then [(rhythm fig 3](Until fade) w/ [(riff 2]
Flaming youth will set the world on fire
Flaming youth will set the world on fire
Flaming youth, our flag is flying higher and higher
And higher and higher and higher and higher and higher
Acordes para:
    Compositor: Ace Frehley / Bob Ezrin / Gene Simmons / Paul Stanley Colaboración y revision:
    • lucas silva

    0 comentarios

    mostrar más comentarios

    ¿Conseguiste tocar?

    0 tocaron 0 aún no

    ¡Graba un vídeo tocando Flaming Youth y envianoslo!

    00:00 / 00:00
    outros vídeos desta música
    repetir qualidade Automático
    Outros vídeos desta música
    00:00 / 00:00
    Automático
    OK