Cifra Club

Forever Shymphony Alive

Kiss

Tablatura: Principal (guitarra)
reproducciones 171
Tono: G
Intro:
           D                 C9               G        D9
E|----------------|----------------|--------------------0-----|
B|---------3------|--------3-------|--------3--------3-----0--|
G|------2-----2---|-----------0----|--------------2-----------|
D|---0------------|-----2----------|-----------0--------------|
A|----------------|--3-------------|-----2--------------------|
E|----------------|----------------|--3-----------------------|

           G      D9        C9
E|--3-2-3-2----0---------|
B|---------------3--3~~--|
G|------------------0~~--|
D|------------------2~~--|
A|------------------3~~--|
E|-----------------------|

   D          C9             G/B        D
I gotta tell you what I'm feeling inside
   Em            D               C9
I could lie to myself, but it's true
   D          C9            G/B           D
There's no denying when I look in your eyes
      Em              D         C9
Girl, I'm out of my head over you

Am7         G/B                C       D
 I lived so long believin' all love is blind
    Am7         G/B         C               D
But everything about you is telling me this time

Refrão:
       G  D   Em         C                     Am          D
It's forever, This time I know and there's no doubt in my mind.
  G  D
Forever
G         Am7
 Until my life is through,
G/B           C            D  C9
 Girl I'll be loving you fore_ver
E|-10-----10-10------10-10-----10-8-7--------------|--3--------2--------0-----|
B|----7-8-------7-8--------7-8--------10-8-7~------|--------3--------3-----3--|
G|---------------------------------------------9---|-----2--------0-----------|
D|-------------------------------------------------|--------------------------|
A|-------------------------------------------------|--------------------------|
E|-------------------------------------------------|--------------------------|

            D                C9               G        D9
E|----------------|----------------|--------------------0-----|
B|---------3------|--------3-------|--------3--------3-----0--|
G|------2-----2---|-----------0----|--------------2-----------|
D|---0------------|-----2----------|-----------0--------------|
A|----------------|--3-------------|-----2--------------------|
E|----------------|----------------|--3-----------------------|

           G      D9        C9
E|--3-2-3-2---0----------|
B|---------------3--3~~--|
G|------------------0~~--|
D|------------------2~~--|
A|------------------3~~--|
E|-----------------------|

            D                C9               G        D9
E|----------------|----------------|--------------------0-----|
B|---------3------|--------3-------|--------3--------3-----0--|
G|------2-----2---|-----------0----|--------------2-----------|
D|---0------------|-----2----------|-----------0--------------|
A|----------------|--3-------------|-----2--------------------|
E|----------------|----------------|--3-----------------------|

           G      D9        C9
E|--3-2-3-2---0---------- |
B|---------------3--3~~-- |
G|------------------0~~-- |
D|------------------2~~-- |
A|------------------3~~-- |
E|------------------------|

  D              C9       G/B      D
I hear the echo of the promise I made
  Em             D                        C9
When you're strong you can stand on your own
   D          C9            G/B          D
But those words grow distant as I look at your face
    Em              D       C9
No, I don't wanna go it alone

Am7       G/B                C            D
  I never thought I'd lay my heart on the line.
    Am7         G/B         C               D
But everything about you is telling me this time

Refrão:
       G  D   Em         C                     Am          D
It's forever  This time I know and there's no doubt in my mind.
  G  D
Forever
 G         Am7
  Until my life is through,
 G/B           C            D  C9
  Girl I'll be loving you forever

E|-10-----10-10------10-10-----10-8-7--------------|
B|----7-8-------7-8--------7-8--------10-8-7~------|
G|---------------------------------------------9---|
D|-------------------------------------------------|
A|-------------------------------------------------|
E|-------------------------------------------------|

Solo:
          D       C9        G      D                Em        D
E|---10-10-10--10-10-10-8-7h8p7-------------------------------------|
B|------------------------------10--8-7---------7-7h8---7-8---------|
G|---------------------------------------9-7--9-------9-----9----0--|
D|-0----------------------------------------------------------------|
A|------------------------------------------------------------------|
E|------------------------------------------------------------------|

                    C9        D           C9
E|-------------------------(5)--(7)---|-------------------------------5--------------------|
B|-------------------------(5)--(7)---|-7-8--10--7h8p7-8p7p----7-8-10---10-8-7-------------|
G|-------------------------(5)--(7)---|---------------------9-7------------------7-7h9-7---|
D|-4-5-2-3----2-2----------(5)--(7)---|----------------------------------------------------|
A|---------5--~---5-3------(5)--(7)---|----------------------------------------------------|
E|------------------------------------|----------------------------------------------------|

          G            D                Em    sweep     D
E|-----------------------|------12-14-15-14-12-14-15-14-12-----------------|
B|-----------------------|----12-------------------------------------------|
G|-----------------------|--12---------------------------------------------|
D|--5h7-5----------------|-------------------------------------------------|
A|--------7-5-5h7--------|-------------------------------------------------|
E|-----------------------|-------------------------------------------------|

                   C9
E|----15-------14-------12------10-----------------------------------------|
B|-------------------------------------------------------------------------|
G|-12----12-11-----11-9----9-7-----7-5-------------------------------------|
D|-------------------------------------------------------------------------|
A|-------------------------------------------------------------------------|
E|-------------------------------------------------------------------------|

Am7       G/B           C9           D
 I see my future when I look in your eyes
Am7           G/B             C9          D
 It took your love to make my heart come alive
Am7               G/B                C       D
 Cause I lived my life believin' all love is blind
    Am7         G/B         C               D
But everything about you is tellin' me this time

Refrão:
       G  D   Em         C                     Am          D
It's fore_ver  This time I know and there's no doubt in my mind.
  G  D    G         Am7
Fore_ver.  Until my life is through,
G/B           C            D  C9
 Girl I'll be loving you fore_ver
E|-10-----10-10------10-10-----10-8-7--------------|
B|----7-8-------7-8--------7-8--------10-8-7~------|
G|---------------------------------------------9---|
D|-------------------------------------------------|
A|-------------------------------------------------|
E|-------------------------------------------------|

E|--3-2---3-2---3-2---3-2----------|--3-2---3-2---3-2---3-2----------|
B|------3-----3-----3-----3-----3--|------3-----3-----3-----3---3-3--|
G|--------------------------0---0--|--------------------------0-0-0--|
D|----------------------------0-2--|----------------------------2-2--|
A|------------------------------3--|----------------------------3-3--|
E|---------------------------------|---------------------------------|
Acordes para:
    Colaboración y revision:

    0 comentarios

    mostrar más comentarios

    ¿Conseguiste tocar?

    1 tocaron 0 aún no

    ¡Graba un vídeo tocando Forever Shymphony Alive y envianoslo!

    00:00 / 00:00
    outros vídeos desta música
    repetir qualidade Automático
    Outros vídeos desta música
    00:00 / 00:00
    Automático
    OK