Cifra Club

Forever

KISS

Chords: Principal (acoustic and electric guitars)
tone: G
[Primeira Parte]

[Tab - Dedilhado Primeira Parte]

Parte 1 de 4
   D9       C9       G5     D9
E|--------------------------------0---------|
B|-----3--------3--------3------3---3-------|
G|---2---2--------0-----------3-------------|
D|-0----------0---------0---0---------------|
A|----------3-------------------------------|
E|-------------------5----------------------|

Parte 2 de 4
           D9     C9
E|-3-2-3-2---0----3-------------------------|
B|-------------3--3-------------------------|
G|---------2------0-------------------------|
D|----------------2-------------------------|
A|----------------3-------------------------|
E|------------------------------------------|

Parte 3 de 4
   D9       C9       G5     D9
E|--------------------------------0---------|
B|-----3--------3--------3------3---3-------|
G|---2---2--------0-----------3-------------|
D|-0----------0---------0---0---------------|
A|----------3-------------------------------|
E|-------------------5----------------------|

Parte 4 de 4
           D9     C9
E|-3-2-3-2---0----3-------------------------|
B|-------------3--3-------------------------|
G|---------2------0-------------------------|
D|----------------2-------------------------|
A|----------------3-------------------------|
E|------------------------------------------|

D9          C9                G5        D9                                     
   I gotta tell you what I'm feelin' inside
                                  C9
I could lie to myself, but it's true 
D9                C9           G5         D9                                  
   There's no denying when I look in your eyes
                              C9
Girl I'm out of my head over you

[Segunda Parte]

[Tab - Dedilhado Segunda Parte]

Parte 1 de 2
   Am7      G/B     C9    D9
E|------------------------------0-----------|
B|-----1--------3-------3-----3---3---------|
G|---0---0----0---0---0-----2---------------|
D|-2--------0-------0-----0-----------------|
A|-0--------2-------3-----------------------|
E|------------------------------------------|

Parte 2 de 2
   Am7   G/B       C9    D9
E|-------------0---------------0------------|
B|-----1-----3---3-----3-----3---3----------|
G|---0-----0---------0-----2----------------|
D|-2-----0---------0-----0------------------|
A|-0-----2---------3------------------------|
E|------------------------------------------|

Am7             G/B           C9            D9
    I lived so long believin' all love is blind
    Am7          G/B         C9              D9
But everything about you is tellin' me this time

[Refrão]

        G D  Em            C                     
It's forever,   this time I know 
                Am          D
And there's no doubt in my mind
   G D  G           Am             
Forever,  until my life is through
G/B            C9              D C9
    Girl I'll be lovin' you forever

[Tab - Tab Dedilhado Refrão]

   C9  
E|-3-----2-----0----------------------------|
B|-----3-----3---3--------------------------|
G|---0-----0--------------------------------|
D|------------------------------------------|
A|------------------------------------------|
E|------------------------------------------|

[Primeira Parte]

[Tab - Dedilhado Primeira Parte]

Parte 1 de 4
   D9       C9       G5     D9
E|--------------------------------0---------|
B|-----3--------3--------3------3---3-------|
G|---2---2--------0-----------3-------------|
D|-0----------0---------0---0---------------|
A|----------3-------------------------------|
E|-------------------5----------------------|

Parte 2 de 4
           D9     C9
E|-3-2-3-2---0----3-------------------------|
B|-------------3--3-------------------------|
G|---------2------0-------------------------|
D|----------------2-------------------------|
A|----------------3-------------------------|
E|------------------------------------------|

Parte 3 de 4
   D9       C9       G5     D9
E|--------------------------------0---------|
B|-----3--------3--------3------3---3-------|
G|---2---2--------0-----------3-------------|
D|-0----------0---------0---0---------------|
A|----------3-------------------------------|
E|-------------------5----------------------|

Parte 4 de 4
           D9     C9
E|-3-2-3-2---0----3-------------------------|
B|-------------3--3-------------------------|
G|---------2------0-------------------------|
D|----------------2-------------------------|
A|----------------3-------------------------|
E|------------------------------------------|

D9            C9          G5       D9
   I hear the echo of a promise I made
                                         C9
When you're strong you can stand on your own
D9                       C9           G5           D9
   But those words grow distant as I look at your face
                          C9
No, I don't wanna go it alone

[Segunda Parte]

[Tab - Dedilhado Segunda Parte]

Parte 1 de 2
   Am7      G/B     C9    D9
E|------------------------------0-----------|
B|-----1--------3-------3-----3---3---------|
G|---0---0----0---0---0-----2---------------|
D|-2--------0-------0-----0-----------------|
A|-0--------2-------3-----------------------|
E|------------------------------------------|

Parte 2 de 2
   Am7   G/B       C9    D9
E|-------------0---------------0------------|
B|-----1-----3---3-----3-----3---3----------|
G|---0-----0---------0-----2----------------|
D|-2-----0---------0-----0------------------|
A|-0-----2---------3------------------------|
E|------------------------------------------|

Am7           G/B               C9           D9
    I never thought I'd lay my heart on the line
      Am7        G/B         C9              D9
But everything about you is tellin' me this time

[Refrão]

        G D  Em            C                     
It's forever,   this time I know 
                Am          D
And there's no doubt in my mind
   G D  G           Am             
Forever,  until my life is through
G/B            C9              D C9
    Girl I'll be lovin' you forever

[Base Solo] D9  C9  G5  D9  C9
            D9  C9  G5  D9  C9

[Tab - Dedilhado Base Solo]

Parte 1 de 4
   D9       C9       G5     D9
E|--------------------------------0---------|
B|-----3--------3--------3------3---3-------|
G|---2---2--------0-----------3-------------|
D|-0----------0---------0---0---------------|
A|----------3-------------------------------|
E|-------------------5----------------------|

Parte 2 de 4
           D9     C9
E|-3-2-3-2---0----3-------------------------|
B|-------------3--3-------------------------|
G|---------2------0-------------------------|
D|----------------2-------------------------|
A|----------------3-------------------------|
E|------------------------------------------|

Parte 3 de 4
   D9       C9       G5     D9
E|--------------------------------0---------|
B|-----3--------3--------3------3---3-------|
G|---2---2--------0-----------3-------------|
D|-0----------0---------0---0---------------|
A|----------3-------------------------------|
E|-------------------5----------------------|

Parte 4 de 4
           D9     C9
E|-3-2-3-2---0----3-------------------------|
B|-------------3--3-------------------------|
G|---------2------0-------------------------|
D|----------------2-------------------------|
A|----------------3-------------------------|
E|------------------------------------------|

[Tab - Solo]

Parte 1 de 4
E|--------10--10-10---10---10---8---7h8p7------------|
B|----------------------------------------10-8-7-----|
G|-----7------------7----7----7---7--------------9-7-|
D|---0-----------------------------------------------|
A|---------------------------------------------------|
E|-0-------------------------------------------------|

Parte 2 de 4
E|------------------------------------------|
B|---7-7h8---7-8----------------------------|
G|-9-------9-----9-----------------------5--|
D|---------------------------------------5--|
A|-----------------10-9-10-7-9-5/7-7\3-3-5--|
E|---------------------------------------5--|

Parte 3 de 4
E|--------------------------------7---------|
B|-----7-8-10~-8-7-7h8p7---7-8-10---10------|
G|-----------------------9------------------|
D|---0--------------------------------------|
A|------------------------------------------|
E|-0----------------------------------------|

E|------------------------------------------|
B|-7-7h8p7---7------------------------------|
G|---------9---7/9\7------------------------|
D|-------------------9-7--------------------|
A|-----------------------9\7p5-7~-----------|
E|------------------------------------------|

Parte 4 de 4
E|----------12-14-15-14-12-14-15-14-12------|
B|-------12---------------------------------|
G|----12------------------------------------|
D|-14---------------------------------------|
A|------------------------------------------|
E|------------------------------------------|

E|----15-------14------12-----10------------|
B|----15-------15------12-----10------------|
G|-12----12-11----11-9----9-7----7\5~-------|
D|------------------------------------------|
A|------------------------------------------|
E|------------------------------------------|

[Segunda Parte]

[Tab - Dedilhado Segunda Parte]

Parte 1 de 4
   Am7      G/B     C9    D9
E|------------------------------0-----------|
B|-----1--------3-------3-----3---3---------|
G|---0---0----0---0---0-----2---------------|
D|-2--------0-------0-----0-----------------|
A|-0--------2-------3-----------------------|
E|------------------------------------------|

Parte 2 de 4
   Am7   G/B       C9    D9
E|-------------0---------------0------------|
B|-----1-----3---3-----3-----3---3----------|
G|---0-----0---------0-----2----------------|
D|-2-----0---------0-----0------------------|
A|-0-----2---------3------------------------|
E|------------------------------------------|

Parte 3 de 4
   Am7      G/B     C9    D9
E|------------------------------0-----------|
B|-----1--------3-------3-----3---3---------|
G|---0---0----0---0---0-----2---------------|
D|-2--------0-------0-----0-----------------|
A|-0--------2-------3-----------------------|
E|------------------------------------------|

Parte 4 de 4
   Am7   G/B       C9    D9
E|-------------0---------------0------------|
B|-----1-----3---3-----3-----3---3----------|
G|---0-----0---------0-----2----------------|
D|-2-----0---------0-----0------------------|
A|-0-----2---------3------------------------|
E|------------------------------------------|

    Am7          G/B           C9          D9
Ohh,   I see my future when I look in your eyes
Am7               G/B             C9          D9
    It took your love to make my heart come alive
Am7                   G/B           C9            D9
   'Cause I lived my life believin' all love is blind
      Am7        G/B         C9              D9
But everything about you is tellin' me this time

[Refrão]

        G D  Em            C                     
It's forever,   this time I know 
                Am          D
And there's no doubt in my mind
   G D  G           Am             
Forever,  until my life is through
G/B            C9              D C9
    Girl I'll be lovin' you forever
00:00 / 00:00
Other videos of this song
Repeat
Other videos of this song
Composed by Michael Bolton / Paul Stanley
Collaboration and Review:
  • Gustavo Cunha
  • Gabriel Costa
19.134 views
  • Simplify chords
    • ½ Tone
    • A
    • Bb
    • B
    • C
    • Db
    • D
    • Eb
    • E
    • F
    • F#
    • G
    • Ab
  • Add to list
    00:00 / 00:00
    Chapters
    • Início
    • Dicas iniciais
    • Acordes da primeira parte
    • Tocando primeira parte
    • Ensinando dedilhado primeira parte
    • Acordes da segunda parte
    • Tocando segunda parte
    • Ensinando dedilhado segunda parte
    • Acordes do refrão
    • Tocando refrão
    • Ensinando dedilhado do refrão
    • Ensinando passagem do refrão
    • Dicas
    • Tocando trecho da repetição
    • Solo
    • Ensinando solo (parte 1)
    • Ensinando solo (parte 2)
    • Ensinando solo (parte 3)
    • Ensinando solo (parte 4)
    • Encerramento
    • Extras
    OK