Cifra Club

Forever

Kiss

Tab de bajo: Principal
(afinação eb ab db gb)

(1st verse) (comes in at 0:11)
gb|---------------------------------------------------|
db|---------------------------------------------------|
ab|--5--------3----------------5----------------------|
eb|---------------------3-----------------------------|
                                             
gb|---------------------------------------------------|
db|------------------------------------7--5-----------|
ab|--7------5--------3--3----------3/5----------------|
eb|---------------------------------------------------|

(1st pre-chorus)
gb|---------------------------------|
db|---------------------------5-4---|
ab|-0-0-0-0-2-2-2-2-3-3-3-5-5-----5-|
eb|---------------------------------|
                                                      
gb|-----------------------------------|
db|--------------------------------5--|
ab|-0-0-0-2-2-2-2-2-3-3-3-5-5-5-5h7-7-|
eb|-----------------------------------|

(1st chorus)
gb|------------------------------------------|
db|------------------------------------------|
ab|---------5~-------3-5-7~-----3~-----------|
eb|--3~----------------------------------0-3-|
            
gb|-----------------------------------------|
db|-------------------5---------------------|
ab|---------5~-----5h7-7--------5~-----/12-|
eb|--5~------------------3~-----------------|
                  
gb|---------------------------------------|
db|---------------------------------------|
ab|-------0-0-0-0-0-2-2-2-3-3-3-3-3-5~-3~-|
eb|-3-3-3---------------------------------|

(2nd verse)
gb|---------------------------------------------------|
db|-----------------------------------5-7-5-----------|
ab|--5----------------------------5h7-------7---------|
eb|---------------------------------------------------|
                                              
gb|---------------------------------------------------|
db|---------------------------------------------------|
ab|--5------5--3------3---------5--------5-5----------|
eb|----------------------3----------------------------|
                                                   
gb|---------------------------------5-5----5----------|
db|-----------------------------5/7------7---7-5------|
ab|--7------7--5------3--3-----------------------7----|
eb|---------------------------------------------------|

(2nd pre-chorus)
gb|---------------------------------|
db|---------------------------5-4---|
ab|-0-0-0-0-2-2-2-2-3-3-3-5-5-----5-|
eb|---------------------------------|
                                                      
gb|-----------------------------------|
db|--------------------------------5--|
ab|-0-0-0-2-2-2-2-2-3-3-3-5-5-5-5h7-7-|
eb|-----------------------------------|

(2nd chorus)
gb|------------------------------------------|
db|------------------------------------------|
ab|---------5~-------3-5-7~-----3~-----------|
eb|--3~----------------------------------0-3-|
            
gb|-----------------------------------------|
db|-------------------5---------------------|
ab|---------5~-----5h7-7--------5~-----/12-|
eb|--5~------------------3~-----------------|
                  
gb|---------------------------------------|-5-5-5-5-5-------|
db|---------------------------------------|-----------7-5---|
ab|-------0-0-0-0-0-2-2-2-3-3-3-3-3-5~-3~-|---------------7-|
eb|-3-3-3---------------------------------|-----------------|

(3rd verse / bridge / instrumental part) (or how would you call it?)
gb|------------------------------------------|
db|------------------------------------------|
ab|--5------5--3------3---------5--------3-5-|
eb|----------------------3-------------------|
                                                    
gb|------------------------------------------------|
db|------------------------------------------------|
ab|--7------7--5------3--3--------0-3-3---0-3-0----|
eb|-----------------------------3-------3--------3-|
                                               
gb|------------------------------------------|
db|------------------------------------------|
ab|--5------5--3------3--------2--5--------5-|
eb|----------------------3--3----------------|
                                                      
gb|----------------------------------5-5-5-5-5--------|
db|--------------------------------------------7-5----|
ab|--7------7--5--5-----3--3------3----------------7--|
eb|------------------5--------------------------------|

(3rd pre-chorus)
gb|---------------------------------|
db|---------------------------5-4---|
ab|-0-0-0-0-2-2-2-2-3-3-3-5-5-----5-|
eb|---------------------------------|
                                                      
gb|----------------------------------|
db|---------------------------5-4-/7-|
ab|-0-0-0-2-2-2-2-2-3-3-3-5-5--------|
eb|----------------------------------|
                                                       
gb|-----------------------------------|
db|--------------------------------5--|
ab|-0-0-0-0-2-2-2-2-3-3-3-5-5-5-5h7-7-|
eb|-----------------------------------|
                                           
gb|-------------------------------|---------------|
db|-------------------------------|-10h12--12--12-|
ab|--0------2------3------5-------|---------------|
eb|-------------------------------|---------------|

(3rd chorus)
gb|------------------------------------------|
db|------------------------------------------|
ab|---------5~-------3-5-7~-----3~-----------|
eb|--3~----------------------------------0-3-|
            
gb|-----------------------------------------|
db|-------------------5---------------------|
ab|---------5~-----5h7-7--------5~-----/12-|
eb|--5~------------------3~-----------------|
                  
gb|---------------------------------------|
db|---------------------------------------|
ab|-------0-0-0-0-0-2-2-2-3-3-3-3-3-5~-3~-|
Eb|-3-3-3---------------------------------| x2

(outro)
gb|---------------|
db|---------------|
ab|-3~~~--3-3~~~--|
Eb|---------------| repeat til end
reproducciones 182
Composição: Michael Bolton / Paul Stanley Colaboración y revision:
  • lucas silva

0 comentarios

mostrar más comentarios

¿Conseguiste tocar?

1 tocaron 0 aún no

¡Graba un vídeo tocando Forever y envianoslo!

00:00 / 00:00
outros vídeos desta música
repetir qualidade Automático
Outros vídeos desta música
00:00 / 00:00
Automático
OK