Cifra Club

God of thunder

KISS

Cifrado: Principal (guitarra y guitarra eléctrica)
tono: D
Riff 1|
e|--------------------------------------------------------------------------------------------|
B|--------------------------------------------------------------------------------------------|
G|---------------------------------------------------------------------5-----5--7--7b/7--5--7-|
D|------------------------------------------5~-------------------------5-----5--7--7b/7--5--7-|
A|--------7-----5--5/7~---------7-----5--7-------------7-----5--5/7-------7-------------------|
E|--0--0-----7-----------0---0-----7-------------0--0-----7-----------------------------------|

Riff 2|
e|--------------------------------------------------------------------------------------------|
B|--------------------------------------------------------------------------------------------|
G|--------------------------------------------------------------------------------------------|
D|------------------------------------------5~------------------------------------------------|
A|--------7-----5--5/7~---------7-----5--7-------------7-----5--5/7----------7----5t/7--5t/7~~|
E|--0--0-----7-----------0---0-----7-------------0--0-----7------------0--0----7--------------|

*= O ´´t`` quer dizer que a mão direita deve ser tocado com mais força!

Refrão| (A cifra tá junto com a letra!)

    C5     G5     D5     E5     C5     E5       A5         B5     C5      G5  
e|---------------------------------------------------------------------------|
B|---------------------------------------------------------------------------|
G|--5-5----7-7----7-7----9~-----5-5----9-9-----------------4~-----5-5-----7-7|
D|--5-5----5-5----7-7----9~-----5-5----9-9------2-2-2-2-2--4~-----5-5-----5-5|
A|--3-3-----------5-5----7~-----3-3----7-7------0-0-0-0-0--2~-----3-3--------|
E|---------------------------------------------------------------------------|

       D5     E5         C5    B5      G5   D5
e|---------------------------------------------------------| 
B|---------------------------------------------------------| 
G|-----7-7----9~-----------------------7----7-7-7-7-7-7-7--|
D|-----7-7----9~---------5-4-5-4-5-----5----7-7-7-7-7-7-7--|
A|-----5-5----7~---------3-2-3-2-3----------5-5-5-5-5-5-5--|
E|---------------------------------------------------------|

Solo|
e|---------------------------------------------------------------------------|
B|---------------------------------------------10b~~----------15b-15b-15b/15-|
G|-----------------4b~~~--------7b-7b-7b/7-----------------------------------|
D|-----------------------------------------9---------------------------------|
A|------------------------------------------10-------------------------------|
E|----6~~--7~~---------------------------------------------------------------|

e|-----------------------------------------------------------------------------|
B|12-15-15b~---15/12---------------12-15/12----12---12--15/12---12---12--15/12-|
G|------------------14-12/11~---14b---------14b--14b---------14b--14b----------|
D|-----------------------------------------------------------------------------|
A|-----------------------------------------------------------------------------|
E|-----------------------------------------------------------------------------|

e|-------------15b-15-12/15/12------------|
B|-15/12---12-----------------15-15b-15b~~|
G|------14b-------------------------------|
D|----------------------------------------|
A|----------------------------------------|
E|----------------------------------------|

Final|

   E5
E|------|
B|------|
G|-9--9-|
D|-9--9-|
A|-7--7-|
E|------|

------------------
Intro|
Riff 1=2x
Riff 2

Verso 1|
Riff 1
You've got something about you
You've got something I need
Riff 2
Daughter of Aphrodite
Hear my words and take heed
Riff 1
I was born on Olympus
To my father a son
Riff 2
I was raised by the demons
Trained to reign as the one

Refrão|
C5        G5    D5 E5
 God of thunder
     C5          E5  A5 B5
and rock and roll
C5                G5    D5 E5
 The spell you're under
(C5 B5)                      G5     D5
Will slowly rob you of your virgin soul

Riff 1

Verso 2|
Riff 1
I'm the lord of the wastelands
A modern day man of steel
Riff 2
I gather darkness to please me
And I command you to kneel
Before the

Refrão|
C5        G5    D5 E5
 God of thunder
     C5          E5  A5 B5
and rock and roll
C5                G5    D5 E5
 The spell you're under
(C5 B5)                      G5     D5
Will slowly rob you of your virgin soul

Riff 1|

Solo|
Ice frehley faz o solo
Paul Stanley faz o Riff 1=3x 

Verso 3|
Riff 1|
I am the lord of the wastelands
A modern day man of steel
Riff 2|
I gather darkness to please me
And I command thee to kneel
Before the

Refrão|
C5        G5    D5 E5
 God of thunder
     C5          E5  A5 B5
and rock and roll
C5                G5    D5 E5
 The spell you're under
(C5 B5)                      G5     D5
Will slowly rob you of your virgin soul

Riff 1=3x

Final|
00:00 / 00:00
Otros videos de esta canción
Repetir
Otros videos de esta canción
Composición de Paul Stanley
Colaboración y revisión:
  • Vinícius Veras
1.876 exhibiciones
    • ½ Tono
    • A
    • Bb
    • B
    • C
    • Db
    • D
    • Eb
    • E
    • F
    • F#
    • G
    • Ab
  • Agregar a la lista
    00:00 / 00:00
    OK