Cifra Club

Goin' Blind

Kiss

Tablatura: Principal (guitarra)
Tom: Db (con acordes en la forma de D) Afinação: Eb Ab Db Gb Bb Eb
Intro: D G Bm A (B4 C#4 E4 F#4) F#m (2x)

     D              G

  E|-2-----2--2--2---3----3--3--3-|
  B|-3-----3--3--3---0----0--0--0-|
  G|-2-----2--2--2---0----0--0--0-|
  D|-0-----0--0--0---0----0--0--0-|
  A|-----------------2----2--2--2-|
  E|-----------------3----3--3--3-|

     Bm

  E|-2-----2----2---2--2---2--2--2-|
  B|-3-----3----3---3--3---3--3--3-|
  G|-4-----4----4---4--4---4--4--4-|
  D|-4-----4----4---4--4---4--4--4-|
  A|-2-----2----2---2--2---2--2--2-|
  E|-------------------------------|

     A             B4  C#4  E4  F#4

  E|-------------------------------|
  B|-2-----2--2--------------------|
  G|-2-----2--2-------------2---4--|
  D|-2-----2--2----2---4----2---4--|
  A|-0-----0--0----2---4-----------|
  E|-------------------------------|

      F#m

  E|---2----3-----2--2----2--2----|
  B|---2----3-----2--2----2--2----|
  G|---2----2-----2--2----2--2----|
  D|---4----4-----4--4----4--4----|
  A|---4----4-----4--4----4--4----|
  E|-2-2--2-2-----2--2----2--2----|


     D              G

  E|-2-----2--2--2---3----3--3--3-|
  B|-3-----3--3--3---0----0--0--0-|
  G|-2-----2--2--2---0----0--0--0-|
  D|-0-----0--0--0---0----0--0--0-|
  A|-----------------2----2--2--2-|
  E|-----------------3----3--3--3-|

     Bm

  E|-2-----2----2---2--2---2--2--2-|
  B|-3-----3----3---3--3---3--3--3-|
  G|-4-----4----4---4--4---4--4--4-|
  D|-4-----4----4---4--4---4--4--4-|
  A|-2-----2----2---2--2---2--2--2-|
  E|-------------------------------|

     A             B4  C#4  E4  F#4

  E|-------------------------------|
  B|-2-----2--2--------------------|
  G|-2-----2--2-------------2---4--|
  D|-2-----2--2----2---4----2---4--|
  A|-0-----0--0----2---4-----------|
  E|-------------------------------|

      F#m

  E|---2----3-----2--2----2--2----|
  B|---2----3-----2--2----2--2----|
  G|---2----2-----2--2----2--2----|
  D|---4----4-----4--4----4--4----|
  A|---4----4-----4--4----4--4----|
  E|-2-2--2-2-----2--2----2--2----|


Primeira parte:

D        G                  Bm
  And I know how it should be

A           B4  C#4  E4  F#4  F#m
  There is nothing more for you and I

D           G                  Bm
  Some are young and some are free

A        B4  C#4  E4  F#4 F#m
  And I think I'm goin' blind

  D              G

  E|-2-----2--2--2---3----3--3--3-|
  B|-3-----3--3--3---0----0--0--0-|
  G|-2-----2--2--2---0----0--0--0-|
  D|-0-----0--0--0---0----0--0--0-|
  A|-----------------2----2--2--2-|
  E|-----------------3----3--3--3-|

     Bm

  E|-2-----2----2---2--2---2--2--2-|
  B|-3-----3----3---3--3---3--3--3-|
  G|-4-----4----4---4--4---4--4--4-|
  D|-4-----4----4---4--4---4--4--4-|
  A|-2-----2----2---2--2---2--2--2-|
  E|-------------------------------|

     A             B4  C#4  E4  F#4

  E|-------------------------------|
  B|-2-----2--2--------------------|
  G|-2-----2--2-------------2---4--|
  D|-2-----2--2----2---4----2---4--|
  A|-0-----0--0----2---4-----------|
  E|-------------------------------|

      F#m

  E|---2----3-----2--2----2--2----|
  B|---2----3-----2--2----2--2----|
  G|---2----2-----2--2----2--2----|
  D|---4----4-----4--4----4--4----|
  A|---4----4-----4--4----4--4----|
  E|-2-2--2-2-----2--2----2--2----|


Refrão:

Bm           A              F#m
  'Cause, I think I'm goin' blind

Violão 2:
  E|-------------------------------|
  B|-12----------------------------|
  G|----14-11----11-14-11----11----|
  D|----------14----------14-------|
  A|-------------------------------|
  E|-------------------------------|


Bm       A              F#m     G
  And I know how it's to be, yeah

Violão 2:
  E|-------------------------------|
  B|-15-14-12----12-15-12----------|
  G|----------14----------14-------|
  D|-------------------------------|
  A|-------------------------------|
  E|-------------------------------|


Segunda Parte:
D        G               Bm
  Little lady, can't you see

A           B4    C#4 E4 F#4  F#m
  You're so young and so much different than I

D           G            Bm
  And I know how it's to be

A        B4  C#4  E4  F#4 F#m
  Can't you see I'm goin' blind


D              G

  E|-2-----2--2--2---3----3--3--3-|
  B|-3-----3--3--3---0----0--0--0-|
  G|-2-----2--2--2---0----0--0--0-|
  D|-0-----0--0--0---0----0--0--0-|
  A|-----------------2----2--2--2-|
  E|-----------------3----3--3--3-|

     Bm

  E|-2-----2----2---2--2---2--2--2-|
  B|-3-----3----3---3--3---3--3--3-|
  G|-4-----4----4---4--4---4--4--4-|
  D|-4-----4----4---4--4---4--4--4-|
  A|-2-----2----2---2--2---2--2--2-|
  E|-------------------------------|

     A             B4  C#4  E4  F#4

  E|-------------------------------|
  B|-2-----2--2--------------------|
  G|-2-----2--2-------------2---4--|
  D|-2-----2--2----2---4----2---4--|
  A|-0-----0--0----2---4-----------|
  E|-------------------------------|

      F#m

  E|---2----3-----2--2----2--2----|
  B|---2----3-----2--2----2--2----|
  G|---2----2-----2--2----2--2----|
  D|---4----4-----4--4----4--4----|
  A|---4----4-----4--4----4--4----|
  E|-2-2--2-2-----2--2----2--2----|



Refrão:

Bm           A              F#m
  'Cause, I think I'm goin' blind

Violão 2:
  E|-------------------------------|
  B|-12----------------------------|
  G|----14-11----11-14-11----11----|
  D|----------14----------14-------|
  A|-------------------------------|
  E|-------------------------------|


Bm       A              F#m     G
  And I know how it's to be, yeah

Violão 2:
  E|-------------------------------|
  B|-15-14-12----12-15-12----------|
  G|----------14----------14-------|
  D|-------------------------------|
  A|-------------------------------|
  E|-------------------------------|


Base Solo: D G B5 A5 G* F#5 A (B4 C#4 E4 F#4) (2x)

     D               G

  E|-2-----2--2--2---3----3--3--3-|
  B|-3-----3--3--3---0----0--0--0-|
  G|-2-----2--2--2---0----0--0--0-|
  D|-0-----0--0--0---0----0--0--0-|
  A|-----------------2----2--2--2-|
  E|-----------------3----3--3--3-|

       B5     A5     G*     F#5
  E|-------------------------------|
  B|-------------------------------|
  G|-4------2------0---------------|
  D|-4------2------0------4--------|
  A|-2------0------2------4--------|
  E|---------------3------2--------|

       A            B4  C#4  E4  F#4
  E|-------------------------------|
  B|-2-----2--2--------------------|
  G|-2-----2--2-------------2---4--|
  D|-2-----2--2----2---4----2---4--|
  A|-0-----0--0----2---4-----------|
  E|-------------------------------|

  F#m

  E|---2----3-----2--2----2--2----|
  B|---2----3-----2--2----2--2----|
  G|---2----2-----2--2----2--2----|
  D|---4----4-----4--4----4--4----|
  A|---4----4-----4--4----4--4----|
  E|-2-2--2-2-----2--2----2--2----|

Solo:
  E|-------------------------------|
  B|-17b---17b---17b-15---17---15--|
  G|-------------------------------|
  D|-------------------------------|
  A|-------------------------------|
  E|-------------------------------|

  E|-------------------------------|
  B|-17b~---17b~---17b---17--17--14|
  G|-------------------------------|
  D|-------------------------------|
  A|-------------------------------|
  E|-------------------------------|

  E|-------------------------------|
  B|-17b----17b-17b-17b-17b-17b-17b|
  G|-------------------------------|
  D|-------------------------------|
  A|-------------------------------|
  E|-------------------------------|

  E|-------------------------------|
  B|-17b-15------------------------|
  G|--------14-16-16b-16b-14-16-16b|
  D|-------------------------------|
  A|-------------------------------|
  E|-------------------------------|

  E|-----------------17-----17-----|
  B|-------------17b----17b----17b-|
  G|-16b-16b-16b-------------------|
  D|-------------------------------|
  A|-------------------------------|
  E|-------------------------------|

  E|-17-----17b--------------------|
  B|----17b------15-17-15----15----|
  G|----------------------16-------|
  D|-------------------------------|
  A|-------------------------------|
  E|-------------------------------|

  E|-17b~--17b~--17b~---17--17--14-|
  B|-------------------------------|
  G|-------------------------------|
  D|-------------------------------|
  A|-------------------------------|
  E|-------------------------------|

  E|-------------------------------|
  B|-17b-----17b---17b---15--------|
  G|------------------------14-16--|
  D|-------------------------------|
  A|-------------------------------|
  E|-------------------------------|

  E|-------------------------------|
  B|-------------------------------|
  G|-16b-16b--14-16-16b--16b-16b---|
  D|-------------------------------|
  A|-------------------------------|
  E|-------------------------------|

Refrão:

Bm           A              F#m
  'Cause, I think I'm goin' blind

Violão 2:
  E|-------------------------------|
  B|-12----------------------------|
  G|----14-11----11-14-11----11----|
  D|----------14----------14-------|
  A|-------------------------------|
  E|-------------------------------|


Bm       A              F#m    G
  And I know how it's to be, yeah

Violão 2:
  E|-------------------------------|
  B|-15-14-12----12-15-12----------|
  G|----------14----------14-------|
  D|-------------------------------|
  A|-------------------------------|
  E|-------------------------------|



Terceira parte:

D        G               Bm
  Little lady, can't you see

A           B4    C#4 E4 F#4  F#m
  You're so young and so much different than I

D           G            Bm
  I'm 93, you're sixteen

A        B4  C#4  E4  F#4 F#m
  Can't you see I'm goin' blind



Refrão:

Bm           A              F#m
  'Cause, I think I'm goin' blind

Violão 2:
  E|-------------------------------|
  B|-12----------------------------|
  G|----14-11----11-14-11----11----|
  D|----------14----------14-------|
  A|-------------------------------|
  E|-------------------------------|


Bm       A              F#m    G
  And I know how it's to be, yeah

Violão 2:
  E|-------------------------------|
  B|-15-14-12----12-15-12----------|
  G|----------14----------14-------|
  D|-------------------------------|
  A|-------------------------------|
  E|-------------------------------|


Final:

Base: D G B5 A5 G* F#5 A (B4 C#4 E4 F#4)


     D               G

  E|-2-----2--2--2---3----3--3--3-|
  B|-3-----3--3--3---0----0--0--0-|
  G|-2-----2--2--2---0----0--0--0-|
  D|-0-----0--0--0---0----0--0--0-|
  A|-----------------2----2--2--2-|
  E|-----------------3----3--3--3-|

       B5     A5     G*     F#5
  E|-------------------------------|
  B|-------------------------------|
  G|-4------2------0---------------|
  D|-4------2------0------4--------|
  A|-2------0------2------4--------|
  E|---------------3------2--------|

       A            B4  C#4  E4  F#4
  E|-------------------------------|
  B|-2-----2--2--------------------|
  G|-2-----2--2-------------2---4--|
  D|-2-----2--2----2---4----2---4--|
  A|-0-----0--0----2---4-----------|
  E|-------------------------------|

  F#m

  E|---2----3---------------------|
  B|---2----3---------------------|
  G|---2----2---------------------|
  D|---4----4---------------------|
  A|---4----4---------------------|
  E|-2-2--2-2---------------------|

Violão 2:
  E|-------------------------------|
  B|-15----12----------------------|
  G|-14----11----------------------|
  D|-12-----9----------------------|
  A|-------------------------------|
  E|-------------------------------|
     ↑      ↑
reproducciones 1.883
Acordes para:
    Composição: Gene Simmons / Steven Coronel Colaboración y revision:
    • Luis Henrique
    • Ângelo Palmeira
    • Marcelo Grossi

    0 comentarios

    mostrar más comentarios

    ¿Conseguiste tocar?

    6 tocaron 0 aún no

    ¡Graba un vídeo tocando Goin' Blind y envianoslo!

    00:00 / 00:00
    outros vídeos desta música
    repetir qualidade Automático
    Outros vídeos desta música
    00:00 / 00:00
    Automático
    OK