Cifra Club

Got To Choose

Kiss

Tablatura: Principal (guitarra)
Tom: C
Intro                                    [second time]
|-7~----3----5--5----7--7---3---5--5---|-10-----10------|
|-8~----5----7--7----8--8---5---7--7---|-13(B)--13(B)---|
|-9~----5----7--7----9--9---5---7--7---|----------------|
|--------------------------------------|----------------|
|--------------------------------------|----------------|
|--------------------------------------|----------------|

Verse (Paul)
|------------------------------------------------------|
|------------------------------------------------------|
|--7--7----------5---5-5-------------------------------|
|--7--7----------5---5-5------5--5-x--5--5-------------|
|--5--5----0--2--3---3-3------5--5-x--5--5-------------|
|-----------------------------3--3-x--3--3-------------|
|                                                      |
|(Bruce)                                               |
|--2--2--------------3-3-------------------------------|
|--3--3----------3---3-3------3--3----3--3-------------|
|--2--2----------0---0-0------0--0----0--0-------------|
|----------------0---0-0------0--0-x--0--0-------------|
|----------0--2--3------------x--x-x--x--x-------------|
|-----------------------------3--3-x--3--3-------------|

Chorus  (Both)
|------------------------------------------------------|
|-------------3-------------3------------5-------------|
|--3--3-------3--5--5-------3--5--5------5-----7-------|
|--3--3-------3--5--5-------3--5--5------5-----7-------|
|--1--1---3H5----3--3---3H5----3--3--5H7-------5-------|
|------------------------------------------------------|

Solo (Bruce...no, it's me with more of an Ace Feeling)
|------------------------------------------------------|
|------------------------------------------------------|
|--9(B)-9R--9(BR)--9(BR)----9.B-9.-9.--9.--9.--9.R-----|
|------------------------10-------------------------10-|
|------------------------------------------------------|
|------------------------------------------------------|

|---------------------------10-------------------------------|
|------------------------10----13--10------------------------|
|--11(BR)-11(BR)------12(B)-----------12--10--12--12(BR)-10--|
|----------------12~---------------------------------------12|
|------------------------------------------------------------|
|------------------------------------------------------------|

|---10------10-------10------10-------10------10-------|
|---13(BR)--13(BR)~--13(BR)--13(BR)~--13(BR)--13(BR)~--|
|------------------------------------------------------|
|------------------------------------------------------|
|------------------------------------------------------|
|------------------------------------------------------|

|--10--------------------------------------------------|
|-----10-----------------------17(B)--17R-17(BR)-17(BR)|
|--------12(BR)--10----10~-12--------------------------|
|-------------------12---------------------------------|
|------------------------------------------------------|
|------------------------------------------------------|
            [   Hold bend   ]
|------------------------------------------------------|
|------17(B)-17.-17.-17.-17.-17R------19(BR)-19(BR)----|
|--17~----------------------------17---------------19--|
|------------------------------------------------------|
|------------------------------------------------------|
|------------------------------------------------------|

|--15P-14P-12--15P-14P-12--15P-14P-12--15(B)--15(B)~---|
|------------------------------------------------------|
|------------------------------------------------------|
|------------------------------------------------------|
|------------------------------------------------------|
|------------------------------------------------------|

|--15(Pre-B)-15--15(B)-15--12~--15P-12-----------------|
|--------------------------------------12H-15-12~------|
|------------------------------------------------------|
|------------------------------------------------------|
|------------------------------------------------------|
|------------------------------------------------------|

|------------------------------------------------------|
|------------------------------------------------------|
|---14-12-14----12-------------------------------------|
|------------14----14-12-14~---------------------------|
|------------------------------------------------------|
|------------------------------------------------------|

Ending 
|------------------------------------------------------|
|------------------------------5-5--5-5--55---7~-------|
|--7--7------5------5------5---5-5--5-5--55---7~-------|
|--5--5--0-2-3--0-2-3--0-2-3---3-3--3-3--33---5~-------|
|------------------------------------------------------|

The order goes like this
Intro- 1x alone then three more times with bruce or your partner
Verse- 4x's without lyrics then 8x's with lyrics
Chorus- 2x's
Verse- 8x's
Chorus-2x's
Solo- played under chorus (4x's)
Intro- 4x's
Chorus- 5x's
then ending
reproducciones 352
Acordes para:
    Composição: Paul Stanley Colaboración y revision:
    • Vinícius Veras

    0 comentarios

    mostrar más comentarios

    ¿Conseguiste tocar?

    1 tocaron 0 aún no

    ¡Graba un vídeo tocando Got To Choose y envianoslo!

    00:00 / 00:00
    outros vídeos desta música
    repetir qualidade Automático
    Outros vídeos desta música
    00:00 / 00:00
    Automático
    OK