Cifra Club

Hotter Than Hell

Kiss

Tablatura: Principal (guitarra)
Tom: G
Tuning: Whole step down

> means slide

intro:

--------------------------------------------------------------------------|
----2--2---------3--3-----------------------------------------------------|
----2--2---------2--2-----------------------------------------------------|
----2--2---------0--0------------------------------------3>5-5-5-3>5------|
----0--0---------0--0----------------0--3--0------0-----------------------|
-----------------2--2---------0---3------------3--------------------------|


-2--2-3-------------------------------------------------------------------|
-3--3------------------------3--3-----------------------------------------|
-2--2------------------------2--2-----------------------------------------|
-0--0------------------------0--0---------------------------3>5-5-5-3>5---|
-------------0--3--0-----0---0--0-----------0--3--0-----0-----------------|
--------0--3----------3------2--2-----0--3-----------3--------------------|


--2--2-3-------------------------|
--3--3---------------------------|
--2--2---------------------------|
--0--0---------------------------|  End of Intro
---------------0--3--0-----0-----|
---------0--3-----------3--------|


verse:
she looked good she looked hotter than hell all dressed in satins and lace
---------------------------------------------------------------------------|
-2--2----------------------3--3---------------2--2------------------3--3---|
-2--2----------------------2--2---------------2--2------------------2--2---|
-2--2----------------------0--0---------------2--2------------------0--0---|
-0--0----------------------0--0---------------0--0------------------0--0---|
---------------------------2--2-------------------------------------2--2---|


I looked at her and it was just too clear.......I had to get on the case
--------------------------------------------------------------2--2-3-------|
---2--2-------------------3--3-----------2--2-----------------3--3---------|
---2--2-------------------2--2-----------2--2-----------------2--2---------|
---2--2-------------------0--0-----------2--2-----------------0--0---------|
---0--0-------------------0--0-----------0--0------------------------------|
--------------------------2--2---------------------------------------------|


                      I said lady oh lady can I take you home, theres just..
---------------------------------------------------------------------------|
--------------------------3--3---------------2--2--------------3--3--------|
--------------------------2--2---------------2--2--------------2--2--------|
--------------------------0--0---------------2--2--------------0--0--------|
--------0--3--0-----0-----0--0---------------0--0--------------0--0--------|
--0--3-----------3--------2--2---------------------------------2--2--------|


so much we could do             Id take you all around the whole wide world
--------2--2-3---------------------------------------------3------3--------|
--------3--3------------------------2--2----2--2-----------2------2--------|
--------2--2------------------------2--2----2--2-----------0------0--------|
--------0--0------------------------2--2----2--2-----------0------0--------|
-------------------0--3--0---0------0--0----0--0-----------2------2--------|
--------------0--3---------3-------------------------------3------3--------|


before the evening is through
----2--2--------------------------|
----3--3-----2--2-----------------|
----2--2-----2--2-----1-----------|
----0--0-----2--2-----2-----------|
-------------0--0-----2-----------|
----------------------0-----------|


Chorus:
Hot Hot Hotter than Hell, you know shes gonna leave you well done
---------------------------------------------------------------------------|
---------------------------------------------------------------------------|
---------------------------------------------------------------------------|
-7-7-7-7------5-5-5-5-------7-7-7-7----7-----------------------------------|
-7-7-7-7------5-5-5-5-------7-7-7-7----7-----------------------------------|
-5-5-5-5------3-3-3-3-------5-5-5-5----5-----------------------------------|


Hot Hot Hotter than Hell, she'll burn you like the miday sun
---------------------------------------------------------------------------|
---------------------------------------------------------------------------|
--------------------------7------------------7-----------------------------|
-7-7-7-7-----5-5-5-5------7----5---7---------7---5---7---------------------|
-7-7-7-7-----5-5-5-5------5----5---7---------5---5---7---------------------|
-5-5-5-5-----3-3-3-3-----------3---5-------------3---5---------------------|


Repeat verse, and chorus and theres the song.
reproducciones 180
Acordes para:
    Composição: Paul Stanley Colaboración y revision:
    • Ivan Neto

    0 comentarios

    mostrar más comentarios

    ¿Conseguiste tocar?

    0 tocaron 0 aún no

    ¡Graba un vídeo tocando Hotter Than Hell y envianoslo!

    00:00 / 00:00
    outros vídeos desta música
    repetir qualidade Automático
    Outros vídeos desta música
    00:00 / 00:00
    Automático
    OK