Cifra Club

I Stole Your Love

Kiss

Tablatura: Principal (guitarra)
reproducciones 209
Tono: D#
Obs.: Esta eh uma musica rapida, por tanto ela exige q vc ouça mto
bem a musica para poder pegar seu ritmo. ps: eh tocada meio tom abaixo


Key:
/    = slide up
\    = slide down
b    = bend (whole step)
b^   = bend (1/2 step)
b^^  = bend (1 1/2 steps)
pb   = pre-bend
r    = release-bend
t    = tap with righthand finger
h    = hammer-on
p    = pull-off
~    = Vibrato
*    = Natural Harmonic
#(#) = Trill
**   = Artificial Harmonic
x    = Dead notes (no pitch)
P.M. = Palm mute (- -> underneath indicates which notes)
(\)  = Dive w\bar
(/)  = Release w\bar
Tp   = Tap w\plectrum






Rhythm Fig. 1
                                                     
Eb|----------------------------------------------|
Bb|----------------------------------------------|
Gb|--6----6p-4-----4----4--6p-4-----4/-----9-----|
Db|--6----6p-4-(6)-4----4--6p-4-(6)-4/-----9-----|
Ab|-------------6----------------6---------------|
Eb|----------------------------------------------|


                                                 
Eb|----------------------------------------------|
Bb|----------------------------------------------|
Gb|--6----6p-4-----4----4---6p-4-----2------4----|
Db|--6----6p-4-(6)-4----4---6p-4-(6)-2------4----|
Ab|-------------6-----------------6--------------|
Eb|----------------------------------------------|



Rhythm Fig. 2
                                       
Eb|----------------------------------------------|
Bb|-(9)------------------------------------------|
Gb|--9-------------------------------------------|
Db|--9-------------------------------------------|
Ab|--7-------------------------------------------|
Eb|----------------------------------------------|


                                           
Eb|----------------------------------------------|
Bb|-(11)-----------------------------------------|
Gb|--11---------------------------11-------------|
Db|--11------------------9--------11-------------|
Ab|--9-------------------9--------9--------------|
Eb|----------------------7-----------------------|



Rhythm Fig. 3
                                                 
Eb|----------------------------------------------|
Bb|----------------------------------------------|
Gb|--6----6p-4-----4----4--6p-4-----4/-----9-----|
Db|--6----6p-4-(6)-4----4--6p-4-(6)-4/-----9-----|
Ab|-------------6----------------6---------------|
Eb|----------------------------------------------|


                                                 
Eb|----------------------------------------------|
Bb|----------------------------------------------|
Gb|--6----6p-4-----4----4--6p-4-----4------4-----|
Db|--6----6p-4-(6)-4----4--6p-4-(6)-4------4-----|
Ab|-------------6----------------6---------------|
Eb|----------------------------------------------|




Rhythm Fig. 4
                                                 
Eb|----------------------------------------------|
Bb|----------------------------------------------|
Gb|--6----6p-4-----4----4--6p-4-----4/-----9-----|
Db|--6----6p-4-(6)-4----4--6p-4-(6)-4/-----9-----|
Ab|-------------6----------------6---------------|
Eb|----------------------------------------------|


                                                 
Eb|----------------------------------------------|
Bb|----------------------------------------------|
Gb|--6----6p-4-----4----4--6p-4-----4------------|
Db|--6----6p-4-(6)-4----4--6p-4-(6)-4------------|
Ab|-------------6----------------6---------------|
Eb|----------------------------------------0-----|



Rhythm Fig. 5
                                        
Eb|----------------------------------------------|
Bb|--2------------------4------------------------|
Gb|--2------------------4----------------6-------|
Db|--2------------------4----------------6-------|
Ab|--0------------------2----------------4-------|
Eb|----------------------------------------------|


                                       
Rhythm Fig. 6
                                                 
Eb|----------------------------------------------|
Bb|----------------------------------------------|
Gb|--6----6p-4-----4----4--6p-4-----4/-----9-----|
Db|--6----6p-4-(6)-4----4--6p-4-(6)-4/-----9-----|
Ab|-------------6----------------6---------------|
Eb|----------------------------------------------|
   < - - - - - - - - - 2x - - - - - - - - - - - >

                                                   
Eb|----------------------------------------------|
Bb|----------------------------------------------|
Gb|-------2--------2---2--4--------4----4--4-----|
Db|--2----4p-2--2------2--6p-4--4--4----4--4h-6--|
Ab|--0-------------------------------------------|
Eb|----------------------------------------------|



End 1
                                                
Eb|----------------------------------------------|
Bb|----------------------------------------------|
Gb|--6----6p-4-----4----4--6p-4-----4/-----9-----|
Db|--6----6p-4-(6)-4----4--6p-4-(6)-4/-----9-----|
Ab|-------------6----------------6---------------|
Eb|----------------------------------------------|



End 2
                                                  
Eb|----------------------------------------------|
Bb|----------------------------------------------|
Gb|--6----6p-4-----4----4--6p-4-----4------4-----|
Db|--6----6p-4--6--4----4--6p-4--6--4------4-----|
Ab|-------------6----------------6---------------|
Eb|----------------------------------------------|



Rhythm Fig. 7
                                                 
Eb|----------------------------------------------|
Bb|----------------------------------------------|
Gb|--6----6p-4-----4----4--6p-4-----4/-----9-----|
Db|--6----6p-4-(6)-4----4--6p-4-(6)-4/-----9-----|
Ab|-------------6----------------6---------------|
Eb|----------------------------------------------|


                                                 
Eb|----------------------------------------------|
Bb|----------------------------------------------|
Gb|--6----6p-4-----4----6------------------------|
Db|--6----6p-4-(6)-4----6------------------------|
Ab|-------------6--------------------------------|
Eb|----------------------------------------------|



Solo

Eb|------------------------------------------------------------------|
Bb|------------------------------------------------------------------|
Gb|--6b^^-----4h6----------------------------------------------------|
Db|---------------2~-----/6--4-----------------------2h4p2\1~--------|
Ab|-----------------------------7--6--4--2--4~-----------------------|
Eb|------------------------------------------------------------------|


Eb|------------------------------------------------------------------|
Bb|------------------------------------------------------------------|
Gb|----------------------------11b---11b---11b---9b-r9-----------9---|
Db|--4p2-4p2-4/6~----6/9~--------------------------------11-9-11-----|
Ab|------------------------------------------------------------------|
Eb|------------------------------------------------------------------|


Eb|----------9-------------------------------------------------------|
Bb|-------9-(9)-12-9h12p9----12-9-12b-12b~------9h12p9---------------|
Gb|--11b------------------11---------------------------11p9----------|
Db|------------------------------------------------------------------|
Ab|------------------------------------------------------------------|
Eb|------------------------------------------------------------------|


Eb|------------------------------------------------------9---12p11p9-|
Bb|----------------------------------------9---9h12p9h12-------------|
Gb|--------------------------9---9h11p9h11---------------------------|
Db|------------9---9h11p9h11-----------------------------------------|
Ab|--9h11p9h11-------------------------------------------------------|
Eb|------------------------------------------------------------------|


Eb|--12p11p9--12b--12--9---------------16\---------------------------|
Bb|-----------------------12b--12--9---------------------------------|
Gb|------------------------------------------------------------------|
Db|------------------------------------------------------------------|
Ab|------------------------------------------------------------------|
Eb|------------------------------------------------------------------|








I STOLE YOUR LOVE
Paul Stanley

[Rhy. Fig 1] (4x) 

[Rhy. Fig 2]
I remember the day that we met
I needed someone, you needed someone too, yeah
[Rhy. Fig 1]
[Rhy. Fig 2]
Spend time takin' all you could get
Givin' yourself was one thing you never could do
[Rhy. Fig 4]

[Rhy. Fig 5]
You played with my heart, played with my head
I got to laugh when I think of the things you said

[Rhy. Fig 6 w/ End 1]
'Cause I stole your love, stole your love
Ain't never gonna let you go
[Rhy. Fig 6 / End 2]
I, oh yeah,  stole your love, I stole your love
Stole your love, I stole your love

[Rhy. Fig 2]
You never stop runnin' around
You pick me up, then you could still put me down
[Rhy. Fig 3]
[Rhy. Fig 2]
You were the girl that nobody could own
Stay for a while, then you would leave me alone
[Rhy. Fig 4]

[Rhy. Fig 5]
I'm somethin' different, ain't like the rest
How does it feel to find out you're failin' your test

[Rhy. Fig 6 w/ End 1] (2x)
'Cause I stole your love, stole your love
Ain't never gonna let you go
I, I, stole your love, I stole your love
Stole your love, I stole your love
Guitar!

[Solo over Rhy. Fig 1 (5x)]
[Rhy. Fig 7]
Listen!

[Rhy. Fig 6 w/ End 1] (repeat and fade)
I stole your love, stole your love
Ain't never gonna let you go
I, I, stole your love, I stole your love
Stole your love, I stole your love
I stole your love, stole your love
I stole your love, stole your love
I stole your love, oh
I, oh yeah, stole your love, I stole your love
Stole your love, I stole your love
I, oh yeah, stole your love, oh yeah, stole your love, alright
Acordes para:
    Compositor: Paul Stanley Colaboración y revision:
    • Bruno Muller

    0 comentarios

    mostrar más comentarios

    ¿Conseguiste tocar?

    0 tocaron 0 aún no

    ¡Graba un vídeo tocando I Stole Your Love y envianoslo!

    00:00 / 00:00
    outros vídeos desta música
    repetir qualidade Automático
    Outros vídeos desta música
    00:00 / 00:00
    Automático
    OK