Cifra Club

I Was Made For Loving You

Kiss

Tablatura: Principal
reproducciones 20.876
Tono: E
Introdução - Parte 1:

(Guitarra 1)
   P.M . .
E|----------------------------------------------------|
B|----------------------------------------------------|
G|----------------------------------------------------|
D|----------------------------------------------------|
A|----------------------------------------------------|
E|-0-0-0-0...-----------------------------------------|

Introdução - Parte 2:

(Guitarra 1)
   P.M . . . . . . . . . . . . . .
E|----------------------------------------------------|
B|----------------------------------------------------|
G|----------------------------------------------------|
D|----------------------------------------------------|
A|----------------------------------------------------|
E|-0-0-0-0-0-0-0-0-0-0-0-0-0-0-0-0--------------------|

   P.M . . . . . . . . . . . . . .
E|----------------------------------------------------|
B|----------------------------------------------------|
G|----------------------------------------------------|
D|----------------------------------------------------|
A|----------------------------------------------------|
E|-0-0-0-0-0-0-0-0-0-0-0-0-0-0-0-0--------------------|

   P.M . . . . . . . . . . . . . .
E|----------------------------------------------------|
B|----------------------------------------------------|
G|----------------------------------------------------|
D|----------------------------------------------------|
A|----------------------------------------------------|
E|-5-5-5-5-5-5-5-5-5-5-5-5-5-5-5-5--------------------|

   P.M . . . . . . . . . . . . . .
E|----------------------------------------------------|
B|----------------------------------------------------|
G|----------------------------------------------------|
D|----------------------------------------------------|
A|----------------------------------------------------|
E|-0-0-0-0-0-0-0-0-0-0-0-0-0-0-0-0--------------------|

(Guitarra 2)
E|----------------------------------------------------|
B|----------------------------------------------------|
G|-14--12----14--14p12-------7--5----9--9p7-----------|
D|-14--14----14--14----------7--7----9--9p7-----------|
A|----------------------------------------------------|
E|----------------------------------------------------|

(Guitarra Solo)
E|----------------------------------------------------|
B|-3h5p3p0--------------------------------------------|
G|---------4--2h4p2p0----0h2~-------------------------|
D|--------------------2-------------------------------|
A|----------------------------------------------------|
E|----------------------------------------------------|

E|----------------------------------------------------|
B|-15b17r15p12----------------------------------------|
G|-------------14b16r14p12-14-14b16r14p12-------------|
D|----------------------------------------14-12-12h14~|
A|----------------------------------------------------|
E|----------------------------------------------------|

Introdução - Parte 3:

(Guitarra 1)
   P.M . . . . . . . . . . . . . .
E|----------------------------------------------------|
B|----------------------------------------------------|
G|----------------------------------------------------|
D|----------------------------------------------------|
A|----------------------------------------------------|
E|-0-0-0-0-0-0-0-0-0-0-0-0-0-0-0-0--------------------|

   P.M . . . . . . . . . . . . . .
E|----------------------------------------------------|
B|----------------------------------------------------|
G|----------------------------------------------------|
D|----------------------------------------------------|
A|----------------------------------------------------|
E|-0-0-0-0-0-0-0-0-0-0-0-0-0-0-0-0--------------------|

   P.M . . . . . . . . . . . . . .
E|----------------------------------------------------|
B|----------------------------------------------------|
G|----------------------------------------------------|
D|----------------------------------------------------|
A|----------------------------------------------------|
E|-5-5-5-5-5-5-5-5-5-5-5-5-5-5-5-5--------------------|

   P.M . . . . . . . . . . . . . .
E|----------------------------------------------------|
B|----------------------------------------------------|
G|----------------------------------------------------|
D|----------------------------------------------------|
A|----------------------------------------------------|
E|-5-5-5-5-5-5-5-5-5-5-5-5-5-5-5-5--------------------|

   P.M . . . . . . . . . . . . . .
E|----------------------------------------------------|
B|----------------------------------------------------|
G|----------------------------------------------------|
D|----------------------------------------------------|
A|----------------------------------------------------|
E|-0-0-0-0-0-0-0-0-0-0-0-0-0-0-0-0--------------------|

   P.M . . . . . . . . . . . . . .
E|----------------------------------------------------|
B|----------------------------------------------------|
G|----------------------------------------------------|
D|----------------------------------------------------|
A|----------------------------------------------------|
E|-0-0-0-0-0-0-0-0-0-0-0-0-0-0-0-0--------------------|

   P.M . . . . . . . . . . . . . .
E|----------------------------------------------------|
B|----------------------------------------------------|
G|----------------------------------------------------|
D|----------------------------------------------------|
A|----------------------------------------------------|
E|-5-5-5-5-5-5-5-5-5-5-5-5-5-5-5-5--------------------|

   P.M . . . . . . . . . . . . . .
E|----------------------------------------------------|
B|----------------------------------------------------|
G|----------------------------------------------------|
D|----------------------------------------------------|
A|----------------------------------------------------|
E|-0-0-0-0-0-0-0-0-0-0-0-0-0-0-0-0--------------------|

(Guitarra 2 - Riff Principal)
E|----------------------------------------------------|
B|----------------------------------------------------|
G|-14--12----14--14p12-------7--5----7--7p5-----------|
D|-14--14----14--14----------7--7----7--7-------------|
A|----------------------------------------------------|
E|----------------------------------------------------|

E|----------------------------------------------------|
B|----------------------------------------------------|
G|-14--12----14--14p12-------7--5----9--9p7-----------|
D|-14--14----14--14----------7--7----9--9p7-----------|
A|----------------------------------------------------|
E|----------------------------------------------------|

Primeira Estrofe:

   Em
Tonight
                     G
I wanna give it all to you
        B
In the darkness
                Em
There's so much I wanna do

And tonight
                   G
I wanna lay it at your feet
                    B
'Cause girl, I was made for you
                   A
And girl you were made for me

Refrão:

(Riff Principal)
I was made for loving you baby
You were made for loving me
And I can't get enough of you baby
Can you get enough of me?

Segunda Estrofe:

   Em
Tonight
                   G
I wanna see it in your eyes
          B
Feel the magic
                    Em
There's something that drives me wild

And tonight
                      G
We gonna make it all come true
                       B
'Cause girl, you were made for me
                 A
And girl, I was made for you

Refrão:

(Riff Princiapl)
I was made for loving you baby
You were made for loving me
And I can't get enough of you baby
Can you get enough of me?

I was made for loving you baby
You were made for loving me
And I can give it all to you baby
Can you give it all to me?

Interlúdio:

(Guitarra 1)
E|----------------------------------------------------|
B|----------------------------------------------------|
G|----------------------------------------------------|
D|----------------------------------------------------|
A|-3-3-3-3-3-3-3-3-3-3-3-3-3-3-3-3--------------------|
E|----------------------------------------------------|

E|----------------------------------------------------|
B|----------------------------------------------------|
G|----------------------------------------------------|
D|----------------------------------------------------|
A|-3-3-3-3-3-3-3-3-3-3-3-3-3-3-3-3--------------------|
E|----------------------------------------------------|

E|----------------------------------------------------|
B|----------------------------------------------------|
G|----------------------------------------------------|
D|----------------------------------------------------|
A|-5-5-5-5-5-5-5-5-5-5-5-5-5-5-5-5--------------------|
E|----------------------------------------------------|

E|----------------------------------------------------|
B|----------------------------------------------------|
G|----------------------------------------------------|
D|----------------------------------------------------|
A|-5-5-5-5-5-5-5-5-7-7-7-7-5-5-5-5--------------------|
E|----------------------------------------------------|

(Guitarra 2)
E|-5-----7--------------------------------------------|
B|-5-----5--------------------------------------------|
G|-5-----5---------7-----7--7/9~\---7\----------------|
D|-7-----------x-x-7-----7--7/9~\---7\----------------|
A|-------------x-x-5-----5--5/7~\---5\----------------|
E|----------------------------------------------------|

E|-5-----7--------------------------------------------|
B|-5-----5--------------------------------------------|
G|-5-----5---------7-----7--7/9~--9\--7\--------------|  (2x)
D|-7-----------x-x-7-----7--7/9~--9\--7\--------------|
A|-------------x-x-5-----5--5/7~--7\--5\--------------|
E|----------------------------------------------------|

E|-5-----7--------------------------------------------|
B|-5-----5--------------------------------------------|
G|-5-----5---------7-----7-----7\---------------------|  (2x)
D|-7---------------7-----7-----7\---------------------|
A|-----------------5-5-5-5-5-5-5\---------------------|
E|----------------------------------------------------|

E|----------------------------------------------------|
B|----------------------------------------------------|
G|----------------------------------------------------|
D|-7-9------9-----9-----9-----9-----9-----9-----9-----|
A|-7-9------9-----9-----9-----9-----9-----9-----9-----|
E|-5-7--7-7-7-7-7-7-7-7-7-7-7-7-7-7-7-7-7-7-7-7-7-7-7-|

E|----------------------------------------------------|
B|----------------------------------------------------|
G|----------------------------------------------------|
D|-9-----9-----9-----9-----9--------------------------|
A|-9-----9-----9-----9-----9--------------------------|
E|-7-7-7-7-7-7-7-7-7-7-7-7-7--------------------------|

Oh, can't get enough, oh, oh
I can't get enough, oh, oh
I can't get enough

Solo:

(Parte 1)
   P.M . . .  .  .  .  .  .  .  .  . . . .
E|----------------------------------------------------|
B|----------------------------------------------------|
G|----------------------------------------------------|
D|---------------------------------9-9-9-9...---------|
A|-9-9-9-9-10-10-10-10-12-12-12-12--------------------|
E|----------------------------------------------------|

   P.M . . .  .  .  .  .  .  .  .
E|----------------------------------------------------|
B|----------------------------------------------------|
G|----------------------------------------------------|
D|----------------------------------------------------|
A|-9-9-9-9-10-10-10-10-12-12-12-12--------------------|
E|----------------------------------------------------|

(Parte 2)
E|----------------------------------------------------|
B|----------------------------------------------------|
G|------12---14b16-14-12-14---------------------------|
D|-12-x----x----------------12------------------------|
A|----------------------------------------------------|
E|----------------------------------------------------|

E|----------------------------------------------------|
B|----------------------------------------------------|
G|-12h14p12----b16r14p12----12------------------------|
D|----------14-----------14---------------------------|
A|----------------------------------------------------|
E|----------------------------------------------------|

(Parte 3)
E|----------------------------------------------------|
B|-15b17--15b17~--12h15p12----------------------------|
G|-------------------------14--14b16~-----------------|
D|----------------------------------------------------|
A|----------------------------------------------------|
E|----------------------------------------------------|

E|----------------------------------------------------|
B|---------------------------15-----------------------|
G|-14b16r14p12----12--14b16------14b16r--12-14--------|
D|-------------14------------------------------14~----|
A|----------------------------------------------------|
E|----------------------------------------------------|

Introdução:

Refrão:

(Riff Principal)
I was made for loving you baby
You were made for loving me
And I can't get enough of you baby
Can you get enough of me?

I was made
You were made
I can't get enough
No, I can't get enough

I was made for loving you baby
You were made for loving me
And I can't get enough of you baby
Can you get enough of me?
I was made for loving you baby
Acordes para:

    0 comentarios

      mostrar más comentarios

      ¿Conseguiste tocar?

      11tocaron0aún no

      ¡Graba un vídeo tocando I Was Made For Loving You y envianoslo!

      00:00 / 00:00
      outros vídeos desta música
      repetirqualidadeautomática
      Outro vídeos desta música
        00:00 / 00:00
        automática
        Capítulos
        • Início
        • Tocando a música
        • Configuração do Efeito
        • Tocando Introdução
        • Ensinando Introdução - Parte 1
        • Ensinando Introdução - Parte 2
        • Ensinando Introdução - Parte 3
        • Acordes da Primeira Estrofe
        • Tocando Primeira Estrofe
        • Ensinando Primeira Estrofe
        • Tocando Refrão
        • Tocando Interlúdio
        • Ensinando Interlúdio - Guitarra 1
        • Ensinando Interlúdio - Guitarra 2
        • Tocando Solo
        • Ensinando Solo
        • Encerramento
        OK