Cifra Club

I

Kiss

Tablatura: Principal (guitarra)
Tono: G
   intro/chorus
E|---------------------------------------------------------------------------|
B|---------------------------------------------------------------------------|
G|---------------------------9-9---7---9----7---9----------------9---7---9---|
D|---------------------------9-9---7---9----7---9------2-2-------9---7---9---|
A|---------------------------7-7---5---7----5---7----x-2-2-------7---5---7---|
E|---0--0--0--0--0--0--0--0--------------------------x-0-0-------------------|

E|---------------------------------------------------------------------------|
B|---------------------------------------------------------------------------|
G|-7---9-------------------4--5-5----4--2-2----5--7-7----5--4-4-----7---9-9--|
D|-7---9------2-2----------4--5-5----4--2-2----5--7-7----5--4-4-----7---9-9--|
A|-5---7----x-2-2----------2--3-3----2--0-0----3--5-5----3--2-2-----5---7-7--|
E|----------x-0-0--------x---------------------------------------------------|
         
      repeat          
E|-------------------|
B|-------------------|
G|-7---9----7---9----|
D|-7---9----7---9----|
A|-5---7----5---7----|
E|-------------------|

    verses      "I was so frightened..."     "almost ran away"      "I didn't
E|---------------------------------------------------------------------------|
B|----------------------------------------5~---------------------------------|
G|----------2~----------------------------5~---------------------12~---------|
D|----------2~----------------------------5~---------------------12~---------|
A|----------0~---------------------------------------------------------------|
E|---------------------------------------------------------------------------|

   know"    "that I could do"     "anything"     "I needed to"
E|--------------------------------------------------------------------|
B|--------------------------------------------------------------------|
G|-------11~------------------12~------------11~-----------------2~---|
D|-------12~------------------12~------------12~-----------------2~---|
A|---------------------------------------------------------------0~---|
E|--------------------------------------------------------------------|
                                                               repeat

   chorus  "I      believe in me"      "I      believe in something        mo
E|---------------------------------------------------------------------------|
B|---------------------------------------------------------------------------|
G|----------9-9--7--9--7--9-------------9-9--7--9--7--9-----------------4--5-|
D|----------9-9--7--9--7--9---2--2------9-9--7--9--5--9---2--2----------4--5-|
A|----------7-7--5--7--5--7---2--2------7-7--5--7--5--7---2--2----------2--3-|
E|----------------------------0--0------------------------0--0--------x------|

  re  than you  can   understand     I believe in me"
E|---------------------------------------------------------------------------|
B|---------------------------------------------------------------------------|
G|5---4--2-2----5--7-7----5--4-4-----7---9-9--7--9--7--9---------------------|
D|5---4--2-2----5--7-7----5--2-2-----7---9-7--7--9--7--9---------6-----7-7---|
A|3---2--0-0----3--5-5----3--2-2-----5---7-7--5--7--5--7---------6-----7-7---|
E|---------------------------------------------------------------4-----5-5---|

                         repeat 4x
E|-----------------------------------------=---------------------------------|
B|-----------------------------------------=---------------------------------|
G|----4-----5-5----------------------------=---4-----5-5------7-7------9-----|
D|----4-----5-5-------5-5-------6----7-7---=---4-----5-5------7-7------9-----|
A|----2-----3-3-------5-5-------6----7-7---=---2-----3-3------5-5------7--7-7|
E|--------------------3-3-------4----5-5---=------------------------------0-0|

                                         "I don't need no money....etc...."
E|---------------------------------------------------------------------------|
B|---------------------------------------------------------------------------|
G|---------------------------------------------------------------------------|
D|---------------------------------------------------------------------------|
A|---7-7---7-7---7-7---7-7---7-7---7-7---------------------------------------|
E|---0-0---0-0---0-0---0-0---0-0---0-0---------------------------------------|
                                                  lyrics and bass only until.

              "I dont need to get wasted.."     "It only holds me down"     "
E|---------------------------------------------------------------------------|
B|-----------------------------------------5~--------------------------------|
G|------------2~---------------------------5~----------------------------12~-|
D|------------2~---------------------------5~----------------------------12~-|
A|--------3b--0~-------------------------------------------------------------|
E|---------------------------------------------------------------------------|
  ........

  I just need   a will of my own"    "And the balls"    "to stand alone"
E|----------------------------------------------------------------------|
B|----------------------------------------------------------------------|
G|------------11~-----------------12~---------------11~-----------------|
D|------------12~-----------------12~---------------12~-----------------|
A|----------------------------------------------------------------------|
E|----------------------------------------------------------------------|
                                                             to chorus
reproducciones 72
Acordes para:
    Colaboración y revision:
    • Vinícius Veras

    0 comentarios

    mostrar más comentarios

    ¿Conseguiste tocar?

    1 tocaron 0 aún no

    ¡Graba un vídeo tocando I y envianoslo!

    00:00 / 00:00
    outros vídeos desta música
    repetir qualidade Automático
    Outros vídeos desta música
    00:00 / 00:00
    Automático
    OK