Cifra Club

Im An Animal

Kiss

Tablatura: Principal (guitarra)
reproducciones 30
Tono: G
Intro / Refrão:
E|---------------------------------------------------------------------------|
B|---------------------------------------------------------------------------|
G|----------7-8-9---------12--11--10-----------------------------------------|
D|---5-6-7--7-8-9-----2---x---x---x------------------------------------------|
A|---5-6-7--5-6-7-----2---10--9---8~~~~~~~~~---------------------------------|
E|---3-4-5------------0------------------------------------------------------|

E|---------------------------------------------------------------------------|
B|---------------------------------------------------------------------------|
G|-----------------------------------12--11--12------------------------------|
D|--2----------------------------2---x---x---x-------------------------------|
A|--2---7-5-7-5------------------2---10--9---8~~~~~~~~~~~~~~-----------------|
E|--0-----------7/3-3-3-0-3-5----0-------------------------------------------|

E|---------------------------------------------------------------------------|
B|---------------------------------------------------------------------------|
G|---------------------------------------------------------------------------|
D|--2---------------------------------------5-6-7----------------------------|
A|--2---------------------------------------5-6-7----------------------------|
E|--0--3/14-3-------------------------------3-4-5----------------------------|

E|---------------------------------------------------------------------------|
B|---------------------------------------------------------------------------|
G|------12--11--10-----------------------------------------------------------|
D|--2---x---x---x------2-----------------------------------------------------|
A|--2---10--9---8------2---7-5-7-5-------------------------------------------|
E|--0------------------0-----------73-3-3-0-3-5-----------------------------|

E|---------------------------------------------------------------------------|
B|---------------------------------------------------------------------------|
G|------12--11--10----------7-8-9--------------------------------------------|
D|--2---x---x---x----5-6-7--7-8-9--------------------------------------------|
A|--2---10--9---8----5-6-7--5-6-7--------------------------------------------|
E|--0----------------3-4-5---------------------------------------------------|

Verso:
E|-----------------------------------------------------------------|
B|-----------------------------------------------------------------|
G|------------------------7/9--------------------------------------|
D|--2-2-2----------2-2-2--7/9---2-2-2---------5--4/5-4-------------|
A|--2-2-2--0-1v----2-2-2--5/7---2-2-2--0-1v---5--4/5-4-------------|
E|--0-0-0----------0-0-0--------0-0-0---------3--2/3-2-------------|

E|-----------------------------------------------------------------|
B|-----------------------------------------------------------------|
G|------------------------7/9--------------------------------------|
D|--2-2-2----------2-2-2--7/9---2-2-2---------5--5/7---------------|
A|--2-2-2--0-1v----2-2-2--5/7---2-2-2--0-1v---5--5/7---------------|
E|--0-0-0----------0-0-0--------0-0-0---------3--3/5---------------|

Ponte:
E|-----------------------------------------------------------------|
B|-----------------------------------------------------------------|
G|-----------------------------------------------------------------|
D|---9-----7-----10----12------------------------------------------|
A|---9-----7-----10----12------------------------------------------|
E|---7-----5-----8-----10------------------------------------------|

(1:29)
E|--------------------------------------------------------------------------|
B|--------------------------------------------------------------------------|
G|--------------------------------------------------------------------------|
D|-------7b--7-7-7-7-7-75--------------------------------------------------|
A|--------------------------------------------------------------------------|
E|--5b----------------------------------------------------------------------|

Interludio:
E|---------------------------------------------------------------------------|
B|---------------------------------------------------------------------------|
G|------------------9-7----9-7-----------------------------------------------|
D|--2--2-2----------9-7----9-7-----2--2-2------------------------------------|
A|--2--2-2---/7--------------------2--2-2---/7---7-5-------------------------|
E|--0--0-0--------0------0---------0--0-0------------7-5-7-5-3---------------|

Solo:
E|--12-10--------12-10--------12-10--------12-10---------12-10---------------|
B|--------12-10--------12-10--------12-10---------12-10--------12-10---------|
G|---------------------------------------------------------------------------|
D|---------------------------------------------------------------------------|
A|---------------------------------------------------------------------------|
E|---------------------------------------------------------------------------|

E|--12-10--------12-10--------12-10--------12-10-----------------------------|
B|--------12-10--------12-10--------12-10--------12-10-12-10b----------------|
G|---------------------------------------------------------------------------|
D|---------------------------------------------------------------------------|
A|---------------------------------------------------------------------------|
E|---------------------------------------------------------------------------|

E|---------------------------------------------------------12----12-15-12-15---|
B|---------------------------------------12----12-15-12-15----15---------------|
G|---------------------12----12-14-12-14----14---------------------------------|
D|---12----12-14-12-14----14---------------------------------------------------|
A|------14---------------------------------------------------------------------|
E|-----------------------------------------------------------------------------|

E|--17-15-17--19-17-19-17-19b--------|
B|-----------------------------------|
G|-----------------------------------|
D|-----------------------------------|
A|-----------------------------------|
E|-----------------------------------|

E|--21^22--19-18-17--15-17-15------21^22--19-18-17--15-17-15-18^19----------|
B|----------------------------17--------------------------------------------|
G|--------------------------------------------------------------------------|
D|--------------------------------------------------------------------------|
A|--------------------------------------------------------------------------|
E|--------------------------------------------------------------------------|

E|--12-10--------12-10--------12-10-----------------------------------------|
B|--------12-10--------12-10---------12-11-10-8-10b-------------------------|
G|--------------------------------------------------------------------------|
D|--------------------------------------------------------------------------|
A|--------------------------------------------------------------------------|
E|--------------------------------------------------------------------------|

E|-------------------------------------------------------------|
B|---------------------------------------14-14-14--------------|
G|--------------------12----12-14-12-14--14-14-14--------------|
D|--12----12-14-12-14----14------------------------------------|
A|-----14------------------------------------------------------|
E|-------------------------------------------------------------|

(3:02)
E|---------------------------------------------|
B|---------------------------------------------|
G|-----14---16--17v------19v-------------------|
D|---------------------------------------------|
A|---------------------------------------------|
E|---------------------------------------------|

Outro:
E|--------------------------------------------------------------------|
B|--------------------------------------------------------------------|
G|---------7-8-9----------7-8-9----------7-8-9------------------------|
D|--5-6-7--7-8-9---5-6-7--7-8-9---5-6-7--7-8-9-------2-2------2-2-----|
A|--5-6-7--5-6-7---5-6-7--5-6-7---5-6-7--5-6-7-------2-2------2-2-----|
E|--3-4-5----------3-4-5----------3-4-5--------------0-0------0-0-----|

Intro

Verso 2x

Ponte

Refrão

Verso

Ponte

Refrão

Interlúdio 2x

Solo

Ponte

Refrão

Outro
Acordes para:
    Compositor: Gene Simmons / Paul Stanley / Tommy Thayer Colaboración y revision:
    • Gustavo Faria.

    0 comentarios

    mostrar más comentarios

    ¿Conseguiste tocar?

    0 tocaron 0 aún no

    ¡Graba un vídeo tocando Im An Animal y envianoslo!

    00:00 / 00:00
    outros vídeos desta música
    repetir qualidade Automático
    Outros vídeos desta música
    00:00 / 00:00
    Automático
    OK