Cifra Club

It's My Life

Kiss

Tab de bajo: Principal
Key:
/    = slide up
\    = slide down
b    = bend (whole step)
b^   = bend (1/2 step)
b^^  = bend (1 1/2 steps)
pb   = pre-bend
r    = release-bend
t    = tap with righthand finger
h    = hammer-on
p    = pull-off
~    = Vibrato
*    = Natural Harmonic
#(#) = Trill
**   = Artificial Harmonic
x    = Dead notes (no pitch)
P.M. = Palm mute (- -> underneath indicates which notes)
(\)  = Dive w\bar
(/)  = Release w\bar
Tp   = Tap w\plectrum

Rhythm Fig. 1a
                                                   
Gb|----------------------------------------------|
Db|--5----4----------------------5h7---7--7------|
Ab|------------7----5--0-------------------------|
Eb|----------------------------------------------|
                             
Gb|----------------------------------------------|
Db|--5----5--4-----------------------------------|
Ab|---------------7----0--2----------------12\---|
Eb|----------------------------------------------|

Rhythm Fig. 1b
                                               
Gb|----------------------------------------------|
Db|------------------------------5h7---7--7------|
Ab|-------5----0----5--0-------------------------|
Eb|--3-------------------------------------------|
                                              
Gb|----------------------------------------------|
Db|----------------------------------------------|
Ab|--------5----0----0--2------------------------|
Eb|--3--3----------------------------------12\---|

Rhythm Fig. 2a
                                              
Gb|----------------------------------------------|
Db|----------------------------------------------|
Ab|-------7\-----2----0-------0----0-------------|
Eb|--0--------------------------------4----2-----|
                                            
Gb|----------------------------------------------|
Db|----------------------------------------------|
Ab|-------------2------------7\---2----2---------|
Eb|------2-----------0---------------------------|

Rhythm Fig. 2b
                                               
Gb|--------------------------------------------|
Db|--------------------------------------------|
Ab|--7------------2----0-------0----0----------|
Eb|-------0----0-----------------------4----2--|
                                             
Gb|----------------------------------------------|
Db|----------------------------------------------|
Ab|-------------2------------7-----2----2--------|
Eb|------2-----------0----------0----------------|

Rhythm Fig. 2c
                                              
Gb|----------------------------------------------|
Db|----------------------------------------------|
Ab|-------7\-----2----0-------0----0-------------|
Eb|--0--------------------------------4----2-----|
                                      
Gb|----------------------------------------------|
Db|----------------------------------------------|
Ab|-------------2------------------2----2--------|
Eb|------2-----------0-------0--0----------------|

Rhythm Fig. 2d
                                              
Gb|----------------------------------------------|
Db|----------------------------------------------|
Ab|--7----7\-----2----0-------0----0-------------|
Eb|-----------------------------------4----2-----|
                                   
Gb|----------------------------------------------|
Db|----------------------------------------------|
Ab|-------------2-----------------2----2---------|
Eb|------2-----------0-------0-------------------|

Rhythm Fig. 3a
                                              
Gb|----------------------------------------------|
Db|----------------------------------------------|
Ab|--7----7\-----2----0-------0----0-------------|
Eb|-----------------------------------4----2-----|
                                           
Gb|----------------------------------------------|
Db|----------------------------------------------|
Ab|-------------2--------------------------------|
Eb|------2-----------0---------------------12\---|

Rhythm Fig. 3b
                                              
Gb|----------------------------------------------|
Db|----------------------------------------------|
Ab|--7-----------2----0-------0----0-------------|
Eb|-------0---------------------------4----2-----|
                                             
Gb|----------------------------------------------|
Db|----------------------------------------------|
Ab|-----------2--2----------------------x--------|
Eb|------2------------0-----------12\------------|

Rhythm Fig. 3c
                                              
Gb|----------------------------------------------|
Db|----------------------------------------------|
Ab|--7----7\-----2----0-------0----0-------------|
Eb|-----------------------------------4----2-----|
                                 
Gb|----------------------------------------------|
Db|----------------------------------------------|
Ab|-------------2--------------------------------|
Eb|------2-----------0---------------------------|

Rhythm Fig. 4
                                          
Gb|----------------------------------------------|
Db|----------------------------------------------|
Ab|--5----------5----5---------------------------|
Eb|---------------------------------3------------|
                               
Gb|----------------------------------------------|
Db|----------------------------------------------|
Ab|--0----------5----0---------------------------|
Eb|-------------------------------3--3-----------|
                                          
Gb|----------------------------------------------|
Db|----------------------------------------------|
Ab|--5----------5----5---------------------------|
Eb|---------------------------------3------------|
                                             
Gb|----------------------------------------------|
Db|----------------------------------------------|
Ab|--0----------5----0---------------------------|
Eb|---------------------------5\---3--3--3-------|
                              
Gb|----------------------------------------------|
Db|----------------------------------------------|
Ab|--5----------5----5---------------------------|
Eb|---------------------------------3------------|
                                    
Gb|----------------------------------------------|
Db|----------------------------------------------|
Ab|--0----0------0----2----2--2--2--2--2--2------|
Eb|----------------------------------------------|

Rhythm Fig. 5
                                           
Gb|----------------------------------------------|
Db|----------------------------------------------|
Ab|--5--5----------------------------------------|
Eb|------------------------------3--3--3---------|
                                         
Gb|----------------------------------------------|
Db|-----------------7-----------------------x----|
Ab|--0-------------------------------------------|
Eb|----------------------------------------------|
                                
Gb|----------------------------------------------|
Db|----------------------------------------------|
Ab|--5-------------------------------------------|
Eb|-----------------------------3--3--3----------|
                              
Gb|----------------------------------------------|
Db|----------------------------------------------|
Ab|--0------------------------------0------------|
Eb|----------------------------------------------|
                                           
Gb|----------------------------------------------|
Db|----------------------------------------------|
Ab|--5--------------0--2-------------------------|
Eb|-----------12\--------------------------------|

Rhythm Fig. 6
                                          
Gb|----------------------------------------------|
Db|----------------------------------------------|
Ab|----------------------------------------------|
Eb|------0--------0----------0--------0----------|
    < - - - - - - - - - 3x - - - - - - - - - - >
                                                
Gb|----------------------------------------------|
Db|----------------------------------------------|
Ab|---------------------------7--7--------2--2---|
Eb|------0--------0-----0--0--------0--0---------|

Rhythm Fig. 7
                                              
Gb|----------------------------------------------|
Db|----------------------------------------------|
Ab|-------7\-----2----0-------0----0-------------|
Eb|--0--------------------------------4----2-----|
                                            
Gb|----------------------------------------------|
Db|----------------------------------------------|
Ab|-------------2------------------2----2--------|
Eb|------2-----------0--------0------------------|

Gb|----------------------------------------------|
Db|----------------------------------------------|
Ab|--7------------2----0-------0----0------------|
Eb|-------0----0-----------------------4----2----|
                                  
Gb|----------------------------------------------|
Db|----------------------------------------------|
Ab|-------------2------------------2----2--------|
Eb|------2-----------0--------0------------------|
                                             
Gb|----------------------------------------------|
Db|----------------------------------------------|
Ab|-------7\-----2----0-------0----0-------------|
Eb|--0--------------------------------4----2-----|
                                 
Gb|----------------------------------------------|
Db|------4---------------------------------------|
Ab|-------------2-------------7\---2----2--------|
Eb|------------------0---------------------------|
                                              
Gb|----------------------------------------------|
Db|----------------------------------------------|
Ab|-------7\-----2----0-------0----0-------------|
Eb|--0--------------------------------4----2-----|
                                     
Gb|----------------------------------------------|
Db|----------------------------------------------|
Ab|-------------2-----------------2----2---------|
Eb|------2-----------0-------0-------------------|
                                        Fade out

[Guitar and drums only]

Rhy. Fig 1a

Rhy. Fig 2a
Rhy. Fig 3a

Rhy. Fig 4

Rhy. Fig 1b

Rhy. Fig 2a
Rhy. Fig 2b
Rhy. Fig 2c
Rhy. Fig 3b

Rhy. Fig 1a

Rhy. Fig 2a (2x) 
Rhy. Fig 2d
Rhy. Fig 3c

Rhy. Fig 5

Rhy. Fig 6

Rhy. Fig 7
reproducciones 15
Composição: Gene Simmons / Paul Stanley Colaboración y revision:
  • Vinícius Veras

0 comentarios

mostrar más comentarios

¿Conseguiste tocar?

0 tocaron 0 aún no

¡Graba un vídeo tocando It's My Life y envianoslo!

00:00 / 00:00
outros vídeos desta música
repetir qualidade Automático
Outros vídeos desta música
00:00 / 00:00
Automático
OK