Cifra Club

Jungle

Kiss

Tab de bajo: Principal
Rhythm Fig. 1
                                           
G|--------------------------------------------------------------|
D|--------------------------------------------------------------|
A|--------------------------------------------------------------|
D|--12\---------------------------------------------------------|



Rhythm Fig. 2
                                                   
G|--------------------------------------------------------------|
D|--------------------------------------------------------------|
A|--------------------------------------------------------------|
D|--0h3-0h3-5--0h3-0h3-5-0-3--5---------------------------------|



Rhythm Fig. 3
                                                 
G|--------------------------------------------------------------|
D|--------------------------------------------------------------|
A|--------------------------------------------------------------|
D|--0---0-3p0-0-5p0-0-3----12\----------------------------------|



Rhythm Fig. 4a
                                                      
G|---------------------------------------------3/---------------|
D|--------------------------------------------------------------|
A|--------3h5----------5p3-0--1---1---1---1-1-------------------|
D|--0---0-----0-0---0-------------------------------------------|


                                                           
G|--------------------------------------------------------------|
D|--------------------------------------------------------------|
A|----------------------1-0-------------------------------------|
D|--5--5-5-5--5-5--5-5------5--1---1-1--1-1--1-1--1-1-1---------|


                                                          
G|----------------------------------3---------------------------|
D|--------------------------------------------------------------|
A|--------3h5----------5p3-0--1---1-----1--1--1-1p0-------------|
D|--0---0-----0-0---0-------------------------------5p3---------|


                                                               
G|-------------------10----12-----------------------------------|
D|--------5----5/-12----12-----12\------------------------------|
A|--------------------------------------------------------------|
D|--5---5----5---------------------1---1-1--1-1--1-1--1-1-1-----|
                                  < - - - - - - 2x - - - - >


Rhythm Fig. 4b
                                                      
G|--------------------------------------------------------------|
D|---------------------------------------------8\---------------|
A|--------3h5----------5p3-0--1---1---1---1-1-------------------|
D|--0---0-----0-0---0-------------------------------------------|


                                                          
G|--------------------------------------------------------------|
D|--------5-----------5-3---------------------------------------|
A|------------------------5p3-----------------------------------|
D|--5---5-----5--5--5---------1---1-1--1-1--1-1--1-1-1----------|


                                                          
G|--------------------------------------------3--3/5\3----------|
D|--------------------------------------------------------------|
A|--------3h5----------5p3-0--1---1-1--1-1--1-------------------|
D|--0---0-----0-0---0-------------------------------------------|


                                                               
G|-----------------------10----12\------------------------------|
D|--------5---------5/12----12----------------------------------|
A|--------------------------------------------------------------|
D|--5---5----5-5--5----------------1---1-1--1-1--1-1--1-1-1-----|
                                  < - - - - - - 2x - - - - >


Rhythm Fig. 4c
                                                          
G|----------------------------------3------------3/5\3----------|
D|--------------------------------------------------------------|
A|--------3h5----------5p3-0--1---1----1-1--1-1-----------------|
D|--0---0-----0-0---0-------------------------------------------|


                                                          
G|--------------------------------------------------------------|
D|--------5-----------5-3---------------------------------------|
A|------------------------5p3-----------------------------------|
D|--5---5-----5--5--5---------1---1-1--1-1--1-1--1-1-1----------|


                                                          
G|--------------------------------------------------------------|
D|--------------------------------------------------------------|
A|--------3h5----------5p3-0--1---1-1---1--1--1-1p0-------------|
D|--0---0-----0-0---0-------------------------------5p3---------|


                                                               
G|-------------------10----12--10\------------------------------|
D|--------5----5/-12----12--------------------------------------|
A|--------------------------------------------------------------|
D|--5---5----5---------------------1---1-1--1-1--1-1--1-1-1-----|


                                                           
G|-----------------------------------------------3/5\3-0--------|
D|--------------------------------------------------------------|
A|--------3h5----------5p3-0--1---1-1--1-1--1-1-----------------|
D|--0---0-----0-0---0-------------------------------------------|


                                                                  
G|--------------------10----10h12-10\---------------------------|
D|-----------5/-12-12----12-------------------------------------|
A|-------------------------------------------------------1h3-1--|
D|--5---5-5---------------------------1---1-1--1-1--1-1---------|


                                                                 
G|--------------------------------------------------------------|
D|---------------------------------13--------13---13/15\13------|
A|--------------------------------------------------------------|
D|--1---1-1--1-1--1-1--1-1-1/-13--------13----------------------|



Rhythm Fig. 5
                                                               
G|--------------------------------------------------------------|
D|--------------------------------------------------------------|
A|--------------------------------------------------------------|
D|--0h2-2-0-2--0-2--0-2-0-2-3----0h2-2-0-2--0-2--5-5-5-5-4-3----|


                                                         
G|--------------------------------------------------------------|
D|--------------------------------------------------------------|
A|--------------------------------------------------------------|
D|--0h2-2-0-2--0-2--0-2-0-2-3----0h2-2-0-2--0-5b^---------------|
  < - - - - - - - - - - - 2x - - - - - - - - - - - - >

                                                     
G|--------------------------------------------------------------|
D|--------------------------------------------------------------|
A|--------------------------------------------------------------|
D|--0h2-2-0-2--0-5b^---------0-2--0-2--0-3/----15\--------------|




Rhythm Fig. 6a
                                                 
G|--------------------------------------------------------------|
D|--------------------------------------------------------------|
A|--------------------------------------------------------------|
D|--0---0-3p0-0-5--0-5-0-3--5-----------------------------------|




Rhythm Fig. 6b
                                                   
G|--------------------------------------------------------------|
D|--------------------------------------------------------------|
A|---------------------------3h5--------------------------------|
D|--0---0-3p0-0-5--0-3-0-3h5------------------------------------|




Rhythm Fig. 6c
                                                  
G|--------------------------------------------------------------|
D|--------------------------------------------------------------|
A|-----------------------3h5-3----------------------------------|
D|--0---0-3p0-0-5--0-3h5----------------------------------------|




Rhythm Fig. 6d
                                                   
G|--------------------------------------------------------------|
D|--------------------------------------------------------------|
A|-----------------------3h5-3h5--------------------------------|
D|--0---0-3p0-0-5--0-3h5----------------------------------------|



Rhythm Fig. 6e
                                                   
G|--------------------------------------------------------------|
D|--------------------------------------------------------------|
A|-----------------0-0-0-3-3-5-5--------------------------------|
D|--0---0-3p0-0-5-----------------------------------------------|



Rhythm Fig. 6f
                                                 
G|--------------------------------------------------------------|
D|--------------------------------------------------------------|
A|-------------------5--5h3-------------------------------------|
D|--0---0-3p0-0-5--0--------3-----------------------------------|



Rhythm Fig. 6g
                                                   
G|--------------------------------------------------------------|
D|--------------------------------------------------------------|
A|-----------------------3---3h5--------------------------------|
D|--0---0-3p0-0-5--0-3h5---5------------------------------------|



Rhythm Fig. 7
                                         
G|--------------------------------------------------------------|
D|--------------------------------------------------------------|
A|--------------------------------------------------------------|
D|--0------------------------------------------0----------------|



[Rhy. Fig 1]
[Rhy. Fig 2] (12x)

[Rhy. Fig 2] (8x)
Here I go, Down below 

[Rhy. Fig 3] (4x)
The sun is goin' down 
A Jungle comes alive 
The beast is waking up 
To take another life 

[Rhy. Fig 2] (8x)
I can't sleep, In too deep 

[Rhy. Fig 3] (4x)
The man with nothing left 
Without a place to hide 
Will take a final breath 
And tumble in the night 

[Rhy. Fig 4a]
Yeah, someone's safe at home 
Someone dies alone 
Someone's fallen prey
Yeah, some will take their fill 
Like lions to the kill 
Livin' day to day 
Whoooaaaaa, in the Jungle 

[Rhy. Fig 2] (4x) 

[Rhy. Fig 2] (8x) 
Mothers mourn, Fathers groan 

[Rhy. Fig 3] (4x)
The child takes a hit 
And then he starts to cry 
A mother never hears 
Her baby's last goodbye 

[Rhy. Fig 4b]
Yeah, someone's safe at home 
Someone dies alone 
Someone's fallen prey
Yeah, some will take their fill 
Like lions to the kill 
Livin' day to day 
Whoooaaaaaoooo, in the Jungle 

[Rhy. Fig 5]
[Rhy. Fig 2] (8x)

[Rhy. Fig 3] (4x)
The sun is coming up 
A city comes alive 
The lamb will never see 
A Jungle in the sky 

[Rhy. Fig 4c]
Yeah, someone's safe at home 
Someone dies alone 
Someone's falling prey
Yeah, some will take their fill 
Like lions to the kill 
Livin' day to day
Yeah, domeone dies alone 
Someone's safe at home 
All is flesh and bone 
Whoooaaaaa, in the Jungle

[Outro: alternate Rhy. Figs 6 a-g (see text)]
[Rhy. Fig 7]
reproducciones 16
Composição: Bruce Kulick / Curt Cuomo / Paul Stanley Colaboración y revision:
  • peterson gusmão

0 comentarios

mostrar más comentarios

¿Conseguiste tocar?

0 tocaron 0 aún no

¡Graba un vídeo tocando Jungle y envianoslo!

00:00 / 00:00
outros vídeos desta música
repetir qualidade Automático
Outros vídeos desta música
00:00 / 00:00
Automático
OK