Cifra Club

Ladies In Waiting

Kiss

Tab de bajo: Principal
reproducciones 32
Tunning: Standard (GDAE)
     H        E  E  E  E     H        E  E  E  E     H        E  E  E  E   
G||-----------------------|-----------------------|-----------------------|
D||-----------------------|-----------------------|-----------------------|
A||--6-----------1-----2--|--L-----------4--4--6--|--L-----------1-----2--|
E||-----------------------|-----------------------|-----------------------|


  H        E  E  E  E     H        E  E  E  E     H        E  E  E  E   
-----------------------|-----------------------|-----------------------|
-----------------------|-----------------------|-----------------------|
--L-----------4--4--6--|--L-----------1-----2--|--L-----------4--4--6--|
-----------------------|-----------------------|-----------------------|


  H        E  E  E  E     H        E  E  E  E     H        E  E  E  E   
-----------------------|-----------------------|-----------------------|
-----------------------|-----------------------|-----------------------|
--L-----------1-----2--|--L-----------4--4--6--|--L-----------1-----2--|
-----------------------|-----------------------|-----------------------|


  H        E  E  E  E     H        E  E  E  E     E  E  E  E  E  E  E  E   
-----------------------|-----------------------|--------------------------|
-----------------------|-----------------------|--------------------------|
--L-----------4--4--6--|--L-----------1-----2--|-----2-----4-----4--------|
-----------------------|-----------------------|-----------------------4--|


  E  E  Q    E  E  E  E     H        E  E  E  E     H        E  E  E  E   
-------------------------|-----------------------|-----------------------|
-------------------------|-----------------------|-----------------------|
--------2----0-----------|--------------4--4--6--|--L-----------1-----2--|
-----4----------0--2--4--|--L--------------------|-----------------------|


  H        E  E  E  E     H        E  E  E  E     H        E  E  E  E   
-----------------------|-----------------------|-----------------------|
-----------------------|-----------------------|-----------------------|
--L-----------4--4--6--|--L-----------1-----2--|--L-----------4--4--6--|
-----------------------|-----------------------|-----------------------|


  H        E  E  E  E     H        E  E  E  E     H        E  E  E  E   
-----------------------|-----------------------|-----------------------|
-----------------------|-----------------------|-----------------------|
--L-----------1-----2--|--L-----------4--4--6--|--L-----------1-----2--|
-----------------------|-----------------------|-----------------------|


  E  E  E  E  E  E  E  E     E  E  Q    E  E  E  E     W                 
--------------------------|-------------------------|-------------------|
--------------------------|-------------------------|-------------------|
-----2-----4-----4--------|--------2----0-----------|-------------------|
-----------------------4--|-----4----------0--2--4--|--L----------------|


  E  E  E  E  E  E  E  E     E  E  E  E  E  E  E  E   
--------------------------|--------------------------|
--------------------------|--------------------------|
--------------------------|--------------------------|
--0--0--0--0--0--0--0--0--|--2--2--2--2--2--2--2--2--|


  E  E  E  E  E  E  E  E     E  E  H.              E  E  Q.     E  E  E   
--------------------------|---------------------|------------------------|
--------------------------|---------------------|------------------------|
--5--5--5--5--5--5--5--5--|--7------------------|---------------2--3--4--|
--------------------------|---------------------|--2-----2---------------|


  Q    Q.     E  E  E     E  E  Q.     E  E  E     Q    Q.     E  E  E   
-----------------------|------------------------|-----------------------|
-----------------------|------------------------|-----------------------|
--L----4------2--2-----|---------------2--3--4--|--L----4------2--2-----|
-----------------------|--2-----2---------------|-----------------------|


  E  E  Q.     E  E  E     E  Q.     E  E  E  E     E  Q.     E  E  E  E   
------------------------|------------------------|------------------------|
------------------------|------------------------|------------------------|
------------------------|------------5--6--7-----|---------------4--4--6--|
--5-----5------5--5--7--|-----7---------------7--|-----7------------------|


  H        E  E  E  E     H        E  E  E  E     H        E  E  E  E   
-----------------------|-----------------------|-----------------------|
-----------------------|-----------------------|-----------------------|
--L-----------1-----2--|--L-----------4--4--6--|--L-----------1-----2--|
-----------------------|-----------------------|-----------------------|


  H        E  E  E  E     H        E  E  E  E     H        E  E  E  E   
-----------------------|-----------------------|-----------------------|
-----------------------|-----------------------|-----------------------|
--L-----------4--4--6--|--L-----------1-----2--|--L-----------4--4--6--|
-----------------------|-----------------------|-----------------------|


  H        E  E  E  E     E  E  E  E  E  E  E  E     E  E  Q    E  E  E  E   
-----------------------|--------------------------|-------------------------|
-----------------------|--------------------------|-------------------------|
--L-----------1-----2--|-----2-----4-----4--------|--------2----0-----------|
-----------------------|-----------------------4--|-----4----------0--2--4--|


  W                   E  E  E  E  E  E  E  E     E  E  E  E  E  E  E  E   
-------------------|--------------------------|--------------------------|
-------------------|--------------------------|--------------------------|
-------------------|--------------------------|--------------------------|
--L----------------|--0--0--0--0--0--0--0--0--|--2--2--2--2--2--2--2--2--|


  E  E  E  E  E  E  E  E     H        E  E  E  E     H        E  E  E  E   
--------------------------|-----------------------|-----------------------|
--------------------------|-----------------------|-----------------------|
--5--5--5--5--5--5--5--5--|--7-----------4--4--6--|--L-----------1-----2--|
--------------------------|-----------------------|-----------------------|


  H        E  E  E  E     H        E  E  E  E     H        E  E  E  E   
-----------------------|-----------------------|-----------------------|
-----------------------|-----------------------|-----------------------|
--L-----------4--4--6--|--L-----------1-----2--|--L-----------4--4--6--|
-----------------------|-----------------------|-----------------------|


  H        E  E  E  E     H        E  E  E  E     H        E  E  E  E   
-----------------------|-----------------------|-----------------------|
-----------------------|-----------------------|-----------------------|
--L-----------1-----2--|--L-----------4--4--6--|--L-----------1-----2--|
-----------------------|-----------------------|-----------------------|


  E  E  E  E  E  E  E  E     E  E  Q    E  E  E  E     W                 
--------------------------|-------------------------|-------------------|
--------------------------|-------------------------|-------------------|
-----2-----4-----4--------|--------2----0-----------|-------------------|
-----------------------4--|-----4----------0--2--4--|--L----------------|


  E  E  E  E  E  E  E  E     E  E  E  E  E  E  E  E   
--------------------------|--------------------------|
--------------------------|--------------------------|
--------------------------|--------------------------|
--0--0--0--0--0--0--0--0--|--2--2--2--2--2--2--2--2--|


  E  E  E  E  E  E  E  E     E  E  H.                E  E  Q.     E  E  E   
--------------------------|---------------------||-------------------------|
--------------------------|---------------------||*------------------------|
--5--5--5--5--5--5--5--5--|--7------------------||*---------------2--3--4--|
--------------------------|---------------------||---2-----2---------------|


  Q    Q.     E  E  E     E  E  Q.     E  E  E     Q    Q.     E  E  E   
-----------------------|------------------------|-----------------------|
-----------------------|------------------------|-----------------------|
--L----4------2--2-----|---------------2--3--4--|--L----4------2--2-----|
-----------------------|--2-----2---------------|-----------------------|


                                             Fade Out (Keep Repeating)    
  E  E  Q.     E  E  E     H        E  E  E  E                            
------------------------|-----------------------------------------------||
------------------------|----------------------------------------------*||
------------------------|----------------------------------------------*||
--5-----5------5--5--7--|--L-----------5--5-----------------------------||




Duration Legend
---------------
W - whole
H - half
Q - quarter
E - 8th
. - note dotted


Tablature Legend
----------------
L - tied note
Compositor: Gene Simmons

0 comentarios

mostrar más comentarios

¿Conseguiste tocar?

0 tocaron 0 aún no

¡Graba un vídeo tocando Ladies In Waiting y envianoslo!

00:00 / 00:00
outros vídeos desta música
repetir qualidade Automático
Outros vídeos desta música
00:00 / 00:00
Automático
OK