Cifra Club

Little Caesar

KISS

Cifrado: Principal (guitarra y guitarra eléctrica)
tono: A
Rhythm Fig. 1 (let ring)
                                                  
E|--0------------------------0---0-------------------------|
B|--0----------------------------9--10---------------------|
G|----------/9---------6/7-7-------------------------------|
D|---------------------------------------------------------|
A|---------------------------------------------------------|
E|--0------------------------------------------------------|

                                                   
E|--------0---0------------------0-----------0-------------|
B|------------3/-5-------------0-----0---------------------|
G|--1/2-2------------------2/4----------4------------------|
D|---------------------------------------------------------|
A|---------------------------------------------------------|
E|---------------------------------------------------------|


Rhythm Fig. 2
                                                            
E|---------------------------------------------------------|
B|---------------------------------------------------------|
G|---------------------------------------------------------|
D|---------------------------------------------------------|
A|-----7--5--4--5/7-7-7-----------7--5--4--5/7-7-7---------|
E|--0--------------------0-5p0-0--------------------0-3p0--|


                                                         
E|---------------------------------------------------------|
B|---------------------------------------------------------|
G|-------------------------------------------7-------------|
D|-----------------------------------------x-7---x-7-------|
A|-----7--5--4--5/7-7-7-----------7--5--4--x-5---x-7-------|
E|--0--------------------0-5p0-0-------------------5-------|




Rhythm Fig. 3
                                                            
E|---------------------------------------------------------|
B|---------------------------------------------------------|
G|---------------------------------------------------------|
D|---------------------------------------------------------|
A|-----7--5--4--5/7-7-7-----------7--5--4--5/7-7-7---------|
E|--0--------------------0-5p0-0--------------------0-3p0--|


                                                         
E|---------------------------------------------------------|
B|---------------------------------------------------------|
G|---------------------------------------------------------|
D|---------------------------------------------------------|
A|-----7--5--4--5/7-7-7-----------7--5--4--5/7-7-7~--------|
E|--0--------------------0-5p0-0------------------------0--|


                                                     
E|---------------------------------------------------------|
B|---------------------------------------------------------|
G|--2----5--4--2-2-0-2--x-2-------5--4--2-2-0-2------------|
D|--2----5--4--2-2-0-2--x-2-------5--4--2-2-0-2------------|
A|--0---------------------0--------------------------------|
E|---------------------------------------------------------|


                                                        
E|---------------------------------------------------------|
B|---------------------------------------------------------|
G|---------------------------------------------------------|
D|---------------------------------------------------------|
A|-------5--4--5/7-7-7-----------7--5--4--5/7-7-7~---------|
E|--3b------------------0-3p0-0----------------------------|
    1/4-step




Rhythm Fig. 4
                                                  
E|---------------------------------------------------------|
B|-----------x-x------------------------2------------------|
G|--2h4--4---x-x-2h4--4------2-------2---------------------|
D|--2h4--4---x-x-2h4--4------2----2------------------------|
A|--2-2--2-------2-2--2------0-----------------------------|
E|---------------------------------------------------------|
                             Let ring - - >

   
                                           
E|--9-9-x-9--9-9-9-9~--------------------------------------|
B|--8-8-x-8--8-8-8-8~--------------------------------------|
G|--9-9-x-9--9-9-9-9~--------------------------------------|
D|---------------------------------------------------------|
A|---------------------------------------------------------|
E|---------------------------------------------------------|




Rhythm Fig. 5a
                                                      
E|---------------------------------------------------------|
B|---------------------------------------------------------|
G|--7\6/7-----7---7-7--9-----7\6/7-----7---7-7--9\---------|
D|--7\6/7-7---7---7-7--9-----7\6/7-7---7---7-7--9\---------|
A|--5\4/5-7---5---5-5--7-----5\4/5-7---5---5-5--7\---------|
E|--------5------------------------5-----------------------|
   < - - - - 3x - - - - >



Rhythm Fig. 5b
                                                       
E|---------------------------------------------------------|
B|---------------------------------------------------------|
G|--7\6/7-----7---7-7--9-----------------------------------|
D|--7\6/7-7---7---7-7--9-----5---5---5---5-5-5-5-5---------|
A|--5\4/5-7---5---5-5--7-----3---2---3---3-3-3-3-2-0-------|
E|--------5------------------------------------------------|
   < - - - - 3x - - - - >



Rhythm Fig. 5c
                                                    
E|---------------------------------------------------------|
B|---------------------------------------------------------|
G|--7\6/7-----7---7-7--9-----7-------7---9--9-9\-----------|
D|--7\6/7-7---7---7-7--9-----5---7---7---9--9-9\-----------|
A|--5\4/5-7---5---5-5--7-----5---7---5---7--7-7\-----------|
E|--------5----------------------5-------0--0-0------------|
   < - - - - 3x - - - - >






Rhythm Fig. 6 (let ring)
                                                
E|---------------------------0------------0----------------|
B|-------------------------0-----0-----0-------------------|
G|----------/9---------2/4----------4----------------------|
D|--2------------------------------------------------------|
A|--2------------------------------------------------------|
E|--0------------------------------------------------------|





Rhythm Fig. 7 (let ring)
                                                   
E|--0-------------0-----------0------------0---------------|
B|--0-----------0-----0-----------0------0-----0-----------|
G|----------/9------------6----------7/9-------------------|
D|---------------------------------------------------------|
A|---------------------------------------------------------|
E|---------------------------------------------------------|


                                                         
E|------0------------0-------------0-------------0---------|
B|----------0------0-----0-------0-----0-------0-----0-----|
G|--9----------7/9-----------11-----------9/11-------------|
D|---------------------------------------------------------|
A|---------------------------------------------------------|
E|---------------------------------------------------------|


                                                       
E|-------0-----------0------------0------------0-----------|
B|-----0-----0-----0-----0------0-----0------0-----0-------|
G|--7-----------7------------4-----------7/9---------------|
D|---------------------------------------------------------|
A|---------------------------------------------------------|
E|---------------------------------------------------------|


                                                          
E|-------0------------0-------------0-------------0--------|
B|-----0-----0------0-----0-------0-----0-------0-----0----|
G|--9-----------7/9-----------11-----------9/11------------|
D|---------------------------------------------------------|
A|---------------------------------------------------------|
E|---------------------------------------------------------|


                                                       
E|-------0-----------0------------0------------0-----------|
B|-----0-----0-----0-----0------0-----0------0-----0-------|
G|--7-----------7------------4-----------7/9---------------|
D|---------------------------------------------------------|
A|---------------------------------------------------------|
E|---------------------------------------------------------|


                                                                  

E|-------0------------0------------------------------------|
B|-----0-----0------0-----0--------------------------------|
G|--9-----------7/9----------------------------------------|
D|---------------------------------------------------------|
A|---------------------------------------------------------|
E|---------------------------------------------------------|


Rhythm Fig. 8
                                                              
E|---------------------------------------------------------|
B|---------------------------------------------------------|
G|-------------------4--------7----------------------------|
D|--2----------------4--------7---------2------------------|
A|--2----------------2--------5---------2------------------|
E|--0-----------------------------------0------------------|
   < - - - - - - 2x - - - - - - >


Riff 1

E|---------------------------------------------------------|
B|--14b^---r14-p12---10-11-12------------------------------|
G|----------------------------12b--------------------------|
D|---------------------------------------14p12-------------|
A|---------------------------------------------14-13-12----|
E|---------------------------------------------------------|
   Gradual                    3/4-step



E|---------------------------------------------------------|
B|---------------------------------------------------------|
G|---------------------------------------------------------|
D|---------------------------------------------------------|
A|--10~------7**p5-----------------------------------------|
E|-------------------------3b^--------0(\)-----------------|
             Semi-harm     gradual


Solo

E|---------------------------------------------------------|
B|--14b^----14b^----14b^~----------------------------------|
G|---------------------------------------------------------|
D|---------------------------------------------------------|
A|-----------------------------12b--10~--------------------|
E|------------------------------------------2b^--r2(\)-----|

E|-------------------------------------------15------------|
B|------------------------10b---r10------15b----15b--------|
G|--7--x-7--x-7h9~--9-7-9----------------------------------|
D|---------------------------------------------------------|
A|---------------------------------------------------------|
E|---------------------------------------------------------|
                                         Let ring


E|--12-----------------------------------------------------|
B|-----15-12-----------------------------------------------|
G|-----------14b-r14p12------------12----------------------|
D|----------------------14---14p12----12-14~---12-14-------|
A|---------------------------------------------------------|
E|---------------------------------------------------------|
                                 Let ring



E|---------------------------------------------------------|
B|---------------------------------------------------------|
G|---------------------------------------------------------|
D|---------------------------------------------------------|
A|--12b-r12-10-------10b-------r10-------------(\)---------|
E|-------------12~-----------------------------------------|
                     Gradual   feedback  


Riff 2

E|-----------15h17p15----17p15----17p15----17b-------------|
B|--15h17~------------17-------17-------17-----------------|
G|---------------------------------------------------------|
D|---------------------------------------------------------|
A|---------------------------------------------------------|
E|---------------------------------------------------------|
                                            Gradual

Outro solo

E|--17b~----------r17-p15----------------------------------|
B|------------------------17~------------------------------|
G|---------------------------------------2b**-x-2b**-x-2b--|
D|---------------------------------------------------------|
A|---------------------------------------------------------|
E|---------------------------------------------------------|

E|---------------------------------------------------------|
B|---------------------------------15----15----15----------|
G|--x-2b**-r2-0h2p-----------------14b---14b---14b~--------|
D|-----------------2---------------------------------------|
A|---------------------------------------------------------|
E|--------------------0(\)---------------------------------|

E|---------------------------------------------------------|
B|---------------------------------------------------------|
G|--/9~-------5~--4~--2~-----------------------------------|
D|--------------------------/5-5-5-5-4-2-0-2~---(\)--------|
A|---------------------------------------------------------|
E|---------------------------------------------------------|

E|---------------------------------------------------------|
B|-----8---8~------------8~--------8---------------8~------|
G|--/9---9-------7~--9~-----9~-------9\-----7~--9~-----9~--|
D|---------------------------------------------------------|
A|---------------------------------------------------------|
E|---------------------------------------------------------|
    Let ring



E|---------------------------------------------------------|
B|--10b--8-----------8-------------------------------------|
G|---------9p7-9~------9-9p7-9~-------2b-r2-p0-------------|
D|---------------------------------------------2---0-2-----|
A|---------------------------------------------------------|
E|---------------------------------------------------------|


[Rhy. Fig 1]

[Rhy. Fig 2 w/ Riff 1]

[Rhy. Fig 3]
Ten million stories in the city, ten million backs against the wall 
Desperation's out tonight, you can cut it with a knife 
Everybody wants to have it all 
[Rhy. Fig 4]
Well they tell you that the world is rough 
But they never rocked it hard enough 

[Rhy. Fig 5a] 
Hey little Caesar, nobody messing with you 
Hey little Caesar, go show 'em what you can do 

[Rhy. Fig 6]

[Rhy. Fig 3]
Nobody said that it was pretty, you haven't got a penny or a prayer 
You know it's gonna be a fight, if you wanna see your name in lights 
Ain't nobody gives a damn out there 
[Rhy. Fig 4]
Well you got your guts, you got your pride 
But you'll never let them see inside 

[Rhy. Fig 5a] 
Hey little Caesar, nobody messing with you 
Hey little Caesar, go show 'em what you can do 


[Rhy. Fig 7 w/ Rhy. Fig 8] 
You¥ll show them what you can do
Well you don't believe in the books and rules 
'Cause you just believe in what you know is cool 
Well they tell you that the world is rough 
But they never rocked it hard enough - I can't hear you 

[Solo over Rhy. Fig 3]

[Rhy. Fig 4 w/ Riff 2]
They just don't understand, you gotta fight to be a man 

[Rhy. Fig 5a] 
Hey little Caesar, nobody messing with you 
Hey little Caesar, go show 'em what you can do 

[Rhy. Fig 5b]
Hey little Caesar, oh yeah, that's what it is 
Hey little Caesar, yeah
Oooh 

[Rhy. Fig 5c w/ Riff 3]
Ooh, oh, woah
Hey little Caesar, alright
You gotaa show 'em, yeah
00:00 / 00:00
Otros videos de esta canción
Repetir
Otros videos de esta canción
Composición de Adam Mitchell / Eric Carr / Gene Simmons
Colaboración y revisión:
  • peterson gusmão
51 exhibiciones
    • ½ Tono
    • A
    • Bb
    • B
    • C
    • Db
    • D
    • Eb
    • E
    • F
    • F#
    • G
    • Ab
  • Agregar a la lista
    00:00 / 00:00
    OK