Cifra Club

Love Theme From Kiss

Kiss

Tab de bajo: Principal
reproducciones 21
Gb|------------------------------|---------------7/9------------|
Db|------------------------------|--------------------9--7-5----|
Ab|------------------------------|---------------------------5--|
Eb|------------------------------|------------------------------|



Gb|-----------------------------|-------------------------------|
Db|-----------------------------|-----------5-6-7--7-6-7-7------|
Ab|--7---5-7--7-5-7---------5-6-|--7---5-7-----------------7-5--|
Eb|------------------5-6-7------|-------------------------------|
   < - - - - - - - - - - - - - - 2x - - - - - - - - - - - - - - >



Gb|-----7-8-9--------------------|------------------------------|
Db|--------------9\7-5-----------|------------------------------|
Ab|--7-----------------7p5-----5-|--7-------------------5---6---|
Eb|------------------------5h7---|-------5----7----8------------|



Gb|-----------------------------|-------------------------------|
Db|-----------------------------|-----------5-6-7--7-6-7-7------|
Ab|--7---5-7--7-5-7---------5-6-|--7---5-7-----------------7-5--|
Eb|------------------5-6-7------|-------------------------------|



Gb|--7---8---9----11-----12-----14---|--------------------------|
Db|----5---6----9-----10-----12------|--------------------------|
Ab|----------------------------------|--7----6----5-------------|
Eb|----------------------------------|-----------------7---5--3-|



Gb|-----------------------------|-------------------------------|
Db|-----------------------------|-----------5-6-7--7-6-7-7------|
Ab|--7---5-7--7-5-7---------5-6-|--7---5-7-----------------7-5--|
Eb|------------------5-6-7------|-------------------------------|



Gb|-----------------------------|-------------------------------|
Db|--7-5------------------------|-------------------------------|
Ab|-------5-7-------------------|--7-------------------5---6----|
Eb|------------7-5--0-3-0-3--5--|-------5----7----8-------------|



Gb|-----------------------------|-------------------------------|
Db|-----------------------------|-----------5-6-7--7-6-7-7------|
Ab|--7---5-7--7-5-7---------5-6-|--7---5-7-----------------7-5--|
Eb|------------------5-6-7------|-------------------------------|



Gb|------------------------------|------------------------------|
Db|------------------------------|-----------5-6-7--7-6-7-7-----|
Ab|--7---5-7--7-5-7------------5-|--7---5-7-----------------7-5-|
Eb|-----------------4--4-5-6-7---|------------------------------|



Gb|----9-----7-----11-----9---7-4----|--------------------------|
Db|--7-----5-----9------7---------5--|--------------------------|
Ab|----------------------------------|--------------------------|
Eb|----------------------------------|--------------------------|



Gb|------------------------------|------------------------------|
Db|------------------------------|------------------------------|
Ab|--7---5-7--7-5-7---------5-6--|--7---5-7-----------------5-6-|
Eb|------------------5-6-7-------|----------0--4---5---6--7-----|

Gb|-----------------------------|-------------------------------|
Db|-----------------------------|-----------5-6-7--7-6-7-7------|
Ab|--7---5-7--7-5-7---------5-6-|--7---5-7-----------------7-5--|
Eb|------------------5-6-7------|-------------------------------|



Gb|---------------------|-----------------|---------------------|
Db|---------------------|-----------------|---------------------|
Ab|--3--------2---------|-----------------|--3--------2---------|
Eb|----------------3----|--0--------------|----------------3----|



Gb|-------------------|---------------------|-------------------|
Db|-------------------|---------------------|-------------------|
Ab|-------------------|--3--------2---------|--0----------------|
Eb|--0----------------|----------------3----|-------------------|



Gb|---------------------------|---------------------------------|
Db|---------------------------|--------5-6-7/14---14-12---------|
Ab|-7---5-7--7-5-7--------5-6-|-7--5-7----------12-----14-12-10-|
Eb|----------------5-6-7------|---------------------------------|



Gb|------------------------------|------------------------------|
Db|------------------------------|-----------5-6-7--7-6-7-7-----|
Ab|--7---5-7--7-5-7------------5-|--7---5-7-----------------7-5-|
Eb|-----------------4--4-5-6-7---|------------------------------|



Gb|-----7-8-9--------------------|------------------------------|
Db|--------------9\7-5-----------|------------------------------|
Ab|--7-----------------7p5-----5-|--7----6----5-----------------|
Eb|------------------------5h7---|-----------------7----5---3---|



Gb|-----------------------------|-------------------------------|
Db|-----------------------------|-----------5-6-7--7-6-7-7------|
Ab|--7---5-7--7-5-7---------5-6-|--7---5-7-----------------7-5--|
Eb|------------------5-6-7------|-------------------------------|

0 comentarios

mostrar más comentarios

¿Conseguiste tocar?

0 tocaron 0 aún no

¡Graba un vídeo tocando Love Theme From Kiss y envianoslo!

00:00 / 00:00
outros vídeos desta música
repetir qualidade Automático
Outros vídeos desta música
00:00 / 00:00
Automático
OK