Cifra Club

Magic Touch

KISS

Cifrado: Principal (guitarra y guitarra eléctrica)
tono: E
intro/chorus
E|---------------------------------------------------------------------------|
B|------8--7--9---------------------------------------------------------8--7-|
G|------7--7--9----4---2-2~-----/7---5-5~----/9---7-7~------------------7--7-|
D|------9--7--9----4---2-2~-----/7---5-5~----/9---7-7~------------------9--7-|
A|-----------------2---0-0~-----/5---3-3~----/7---5-5~-------5-7-------------|
E|--0-----------------------------------------------------/7--------0--------|

                                                            "She's got the...
E|---------------------------------------------------------------------------|
B|-9-------------------------------------------------------------------------|
G|-9----4---2-2~-----/7---5-5~----/9---7-7~--------------------9------7---7/9|
D|-9----4---2-2~-----/7---5-5~----/9---7-7~--------------------9------7---7/9|
A|------2---0-0~-----/5---3-3~----/7---5-5~-------5-7-----7-7--7------5---5/7|
E|---------------------------------------------/7---------0-0--0--0-0---0----|

  "                       "And your walkin'..."         "She's got the.."
E|--------------------------0----------0------0------------------------------|
B|---------------------------------------------------------------------------|
G|--9-9-----9----7----5~------5----------5-------------------9------7---7/9--|
D|--9-9-----9----7----5~--------5-----------5----7-----------9------7---7/9--|
A|--7-7-----7----5----3~----------3--2------3----5------7-7--7------5---5/7--|
E|------------------------------------------------------0-0-----0-0---0------|

                                                "You feel that..."
E|---------------------0-----------------------------0--------------0--------|
B|-----------------------------------7------------------1-------3------3-----|
G|9-9-----9----7---5~----5---5---7-----7--9------2--------2-----2--------2---|
D|9-9-----9----7---5~------5-----7--------9------2----------2---0----------0-|
A|7-7-----7----5---3~------------5--------7------0---------------------------|
E|---------------------------------------------------------------------------|

E|------------------------------------0--------------0-----------------------|
B|---------------------------------------1-------3------3--------------------|
G|------------------------2b/2-0---2-------2-----2--------2------------------|
D|---------------------------------2---------2---0----------0----------------|
A|--2-2-2-2-2-2-2-2-2-2-2----------0---------------------------7-7-7-7-7-7-7-|
E|--0-0-0-0-0-0-0-0-0-0-0--------------------------------------0-0-0-0-0-0-0-|

E|----------------------------0-------------0--------------------------------|
B|-------------------------------1-------3-----3-----------------------------|
G|------------------------2--------2-----2-------2---------------------------|
D|------------------------2----------2---0---------0-------------------------|
A|---/7--7---5-3-2-0------0---------------------------2-2-2-2-2-2-2-2-2-2-2-2|
E|-------------------3-0------------------------------0-0-0-0-0-0-0-0-0-0-0-0|
                                          
                               to chorus
E|-------------0-------------0--------------|
B|----------------1-------3----3------------|
G|--2b/2-0--2-------2-----2-----------------|
D|----------2---------2---0-----------------|
A|----------0--------------------------5-7--|
E|----------------------------------/7------|

   solo rythem
E|------------------------------------------|
B|------------------------------------------|
G|---------------------/7---5-5----/7---9-9-|
D|---------------------/7---5-5----/7---9-9-|
A|---7--7---5-3-2-0----/5---3-3----/5---7-7-|
E|------------------3-----------------------|
                                   repeat

   solo
E|------------------------------------------------------------------------15b|
B|--15~--------------------------------------------------15b~--15/12---12----|
G|--14b~---14/12-----------12-12/14/12-------12-12/14/12------------14-------|
D|--------------12-12---14------------14---14--------------------------------|
A|---------------------------------------------------------------------------|
E|---------------------------------------------------------------------------|

e|~--15--12/15/12--12--12---12---12---12---15---15---15---17---17---17-------|
B|---------------15----15b--15b--15b--15b--18b--18b--18b--20b--20b--20b--20b/|
G|---------------------------------------------------------------------------|
D|---------------------------------------------------------------------------|
A|---------------------------------------------------------------------------|
E|---------------------------------------------------------------------------|
 
E|----|
B|20--|
G|----|
D|----|
A|----|
E|----|

   interlude  slower
E|------------0----------------0----------------0----------------0-----------|
B|-------3------3---3-----3------3---3-----3------3---3-----3------3---3-----|
G|---------0------0---------2------2---------0------0---------0------0-------|
D|----------------------0----------------------------------------------------|
A|---------------------------------------3----------------2------------------|
E|----3----------------------------------------------------------------------|
                                                            
E|---------0-----------------0-----------------------------------------------|
B|---0-------3---3------3------3---3---3~------------------------------------|
G|-----3-------0----------2------0-----0~------/7---5-5~---/9---7-7~---------|
D|2------------------0-----------------x~------/7---5-5~---/9---7-7~---------|
A|-------------------------------------3~------/5---3-3~---/7---5-5~-------5-|
E|----------------------------------------------------------------------/7---| 
            
 to chorus     
E|---------|
B|---------|
G|---------|
D|----2~---|
A|7---2~---|
E|----0~---|

    outtro
E|--------------------------------------------------------------15~--14-12---|
B|-----------------------------------------------------------12------------15|
G|--------9-----7--------------------/7---5-5---/9---7-7---------------------|
D|--------9-----7--------------------/7---5-5---/9---7-7---------------------|
A|---7-7--7-----5--/7--7--5-3-2-0----/5---3-3---/7---5-5---------------------|
E|---0-0----0-0-------------------3------------------------------------------|

E|------|
B|--15b~|
G|------|
D|------|
A|------|
E|------|
00:00 / 00:00
Otros videos de esta canción
Repetir
Otros videos de esta canción
Composición de Paul Stanley
Colaboración y revisión:
  • Vinícius Veras
694 exhibiciones
    • ½ Tono
    • A
    • Bb
    • B
    • C
    • Db
    • D
    • Eb
    • E
    • F
    • F#
    • G
    • Ab
  • Agregar a la lista
    00:00 / 00:00
    OK