Cifra Club

Mainline

Kiss

Tablatura: Principal (guitarra)
reproducciones 51
Tono: D
E|---------------------------------------------------------------------------|
B|----------------3-----------------------3----------------------------------|
G|----------------2---2-------------------2---2---6---4--------7-----------9-|
D|-----9-9-9-9----0---2--------9-9-9-9----0---2---6---4--------7--9-7-9-7--7-|
A|-----7-7-7-7--------0--------7-7-7-7--------0---4---2--------5--5-5-5-5--5-|
E|--0-----------------------0------------------------------------------------|

                                              "Ya know that..."         
E|---------------------------------------------------------------------------|
B|---------------------------------------------------------------------------|
G|9-9-9-7-------7-----------9-9-9-9-9-7--------7-------------------------2---|
D|7-7-7-7-7-9---7--9-7-9-7--7-7-7-7-7-7-7-9----7-7-9-7--9-7--7-9-7-7-9---2-4-|
A|--------5-5---5--5-5-5-5--5-----------5-5----5-5-5-5--5-5--5-5-5-5-5---0-0-|
E|---------------------------------------------------------------------------|

E|--------------------|
B|--------------------|
G|--------------------|
D|2-4-2--2-4--2-2-4---|
A|0-0-0--0-0--0-0-0---|
E|--------------------|

   "Ya know what..."
E|------------------------------------------------------------------|
B|------------------3--3-3-3----------------------------------------|
G|--5-----5-7-5-----2--2-2-2----5----5--------2---------------------|
D|--5-----5-5-5-----0--0-0-0----5----5--------2--2-4-2-4-2--2-4-2-4-|
A|--3-----3-3----5--------------3----3---5----0--0-0-0-0-0--0-0-0-0-|
E|---------------3-----------------------3--------------------------|

                      "Mainline...."
E|---------------------------------|
B|---------------------------------|
G|---------------------------------|
D|---------------------------------|
A|---------------------------------|
E|---------------------------------|

(solo)
E|---------------------------------------------------------------------------|
B|--------------------------------7--------------10b(12)-10b(12)~---10b(12)--|
G|------------7-7----7---9--7--9b~~---9b/9/7---------------------------------|
D|--------9-------9--------------------------9-------------------------------|
A|---------------------------------------------------------------------------|
E|---------------------------------------------------------------------------|

E|---------------------------------------------------------------------------|
B|10b(12)~----10b/10----10b/10------------------9--x9-x7--10b--10--8-10------|
G|------------------7---------7-------7-7----7/9--x9-x7-----------------9b/9-|
D|-------------------------------7/9------9----------------------------------|
A|---------------------------------------------------------------------------|
E|---------------------------------------------------------------------------|

E|----------------------------------------------------------------------5----|
B|---------------------------------------------------------------------------|
G|7-------7--9/7----9b--9b--9/7---7/9/7~---9/7---7~----4/2/0--4/2/0--4b~~--2/|
D|----7/9--------9--------------9--------------9-----------------------------|
A|---------------------------------------------------------------------------|
E|---------------------------------------------------------------------------|

E|-------------------------------------9----7----5----3|
B|-------/8---/7--------------------/8-----------------|
G|4/2----/9---/7--5/6/5/6/5/6/5/6---/9---/7---/6---/4--|
D|-----------------------------------------------------|
A|-----------------------------------------------------|
E|-----------------------------------------------------|
Acordes para:
    Compositor: Paul Stanley Colaboración y revision:
    • Marcus Dutra

    0 comentarios

    mostrar más comentarios

    ¿Conseguiste tocar?

    0 tocaron 0 aún no

    ¡Graba un vídeo tocando Mainline y envianoslo!

    00:00 / 00:00
    outros vídeos desta música
    repetir qualidade Automático
    Outros vídeos desta música
    00:00 / 00:00
    Automático
    OK