Cifra Club

Masters and Slaves

Kiss

Tablatura: Principal (guitarra)
reproducciones 20
Tono: G
For this song, KISS is tuned to C#
low to high (C#, F#, B, E, G#, C#)

riff 1
|------------------------------------------|
|------------------------------------------|
|------------------------------------------|
|------------------------------------------|
|---------------------7----5-4-------------|
|-0-0-7-6-0-5-3-0-3-----0------7-----------|

riff 2
|-----------------------------------------|
|-----------------------------------------|
|-----------------------------------------|
|-----------------------------------------|
|--------------------5---7---5------------|
|-3-0-7-6-0-5-3-0-3----0---0--------------|

fill 1 (volume swell)
|-------------------------------------------|
|-------------------------------------------|
|--16---------------------------------------|
|--14---------------------------------------|
|--14---------------------------------------|
|-------------------------------------------|

fill 2 
|------------------------------------------|
|------------------------------------------|
|------------------------------------------|
|------------------------------------------|
|------------------------------------------|
|-7~-6~-3----------------------------------|

riff 3 (heavy palm mute)
|-------------------------------------------|
|-------------------------------------------|
|-------------------------------------------|
|------------------------9----7-6-----------|
|------9-8----7-5----5---7----5-4--9--------|
|--0-0-7-6-0--5-3--0-3-----0-------7--------|

|-------------------------------------------|
|-------------------------------------------|
|-------------------------------------------|
|------------------------7----9---7---------|
|--5---9-8----7-5----5---5----7---5---------|
|--3-0-7-6-0--5-3--0-3------0---0-----------|

riff 4 (clean tone)5/4 time
|------------------------------------------|
|------------------------------------------|
|--4--5--6--7--9---------------------------|
|--2--3--4--5--7---------------------------|
|------------------------------------------|
|------------------------------------------|

riff 5   5/4 time
|------------------------------------------|
|------------------------------------------|
|------------------------------------------|
|--2--3--4--5--7---------------------------|
|--2--3--4--5--7---------------------------|
|--0--1--2--3--5---------------------------|

riff 6 (fill at the end of the solo)
|------------------------------------------|
|------------------------------------------|
|------------------------------------------|
|------------------------------------------|
|--5-5-5-5-4-------------------------------|
|-------------7--7~-6~-3-------------------|

riff 7 (replacement riff for outro choruses)
|------------------------------------------|
|------------------------------------------|
|------------------------------------------|
|------------------------------------------|
|------------------------------------------|
|--0-0-7-6-0-7~-6~-3-----------------------|
Acordes para:

    0 comentarios

    mostrar más comentarios

    ¿Conseguiste tocar?

    0 tocaron 0 aún no

    ¡Graba un vídeo tocando Masters and Slaves y envianoslo!

    00:00 / 00:00
    outros vídeos desta música
    repetir qualidade Automático
    Outros vídeos desta música
    00:00 / 00:00
    Automático
    OK