Cifra Club

Modern Day Delilah

Kiss

Tablatura: Principal (guitarra)
Tom: D
(intro)

|-----|------------------------------------------------------------------|
|-----|------------------------------------------------------------------|
|-----|-----------------5--------------------7-------------------5-------|
|-----|-----------------5--------------------7-------------------5-------|
|-----|-------/7--5h6h7---7--------/7--5h6h7---7------/7---5h6h7----7----|
|-15\-|--0--0-----------------0--0---------------0--0-----------------0--|

|------------------------------|
|------------------------------|
|------7---------------7-------|
|------7---------------7-------|
|5h6h7---7------5h6h7----7-----|
|-----------0------------------|

(verse)
|---3----------------------------------------------------------|
|---3-----3-3--------------------------------------------------|
|---0-----2-2--2----------------------5------------------7-----|
|---0-----0-0--2----------------------5------------------7-----|
|---x----------0-------------7--5h6h7---7--------7-5h6h7---7---|
|---3---------------15\-0--0---------------0--0----------------|

(pre-chorus)
|----------------------------------------|
|----------------------------------------|
|----------x-5---------------------------|
|-3--------x-5-5--------5555--5555-------|
|-3--------x-3-5--------5555--5555-------|
|-1------------3--------3333--3333---/15\|

(chorus)
|------------------------------------------------------------------|
|------------------------------------------------------------------|
|------------------5--------------------7-------------------5------|
|------------------5--------------------7-------------------5------|
|---------7--5h6h7---7---------7--5h6h7---7--------7--5h6h7---7----|
|---0--0------------------0--0----------------0--0--------------0--|

|------------------------------|
|------------------------------|
|------7-------------7---------|
|------7-------------7---------|
|5h6h7---7-----5h6h7---7-------|
|-----------0-------------------

(bridge)
|-------------------------------------------------------|
|-------------------------------------------------------|
|-------------------------------------------------------|
|-9-----7-7-7-----9----7-7-9----9----7-7-7---7-7-7------|
|-9-----5-5-7-----9----5-5-7----9----5-5-7---5-5-7------|
|-7---------5-----7-------------7--------5-------5------|

(solo)
|---------------------------------------------------------------------------|
|---------------------------------------------------------------------------|
|--14\12-------12-14-14b(segure e toque a nota repetidamente)--14b-14p12----|
|--14\12----14------------------------------------------------------14------|
|---------------------------------------------------------------------------|
|---------------------------------------------------------------------------|

|-----------------------------------------------------------------------|
|-----------------------------------------------------------------------|
|-------------------------------------------------------------------12--|
|------12------------------------------------------------12----12h14----|
|-12h14---14-12\10--12p10----------10----10--12p10h12/14----14----------|
|-------------------------12p10h12----12--------------------------------|

|-------------------------------------------------------------------|
|--12--12----14------15--15----17------20p17---(repeat pattern 12x)-|
|--14b-14b---16b-----17b-17b---19b----------19----------------------|
|-------------------------------------------------------------------|
|-------------------------------------------------------------------|
|-------------------------------------------------------------------|

|----------------------------------|
|--20b/r--20b(4 release-bend-)-17--|
|----------------------------------|
|----------------------------------|
|----------------------------------|
|----------------------------------|

|----------------------------------------------|
|-17h20p17-20b/r--20b(4 release-bend)--17--17\-|
|----------------------------------------------|
|----------------------------------------------|
|----------------------------------------------|
|----------------------------------------------|

|----------------------------------|
|12h15p12--10h12p10--8h10p8--7h8p7-|
|----------------------------------|
|----------------------------------|
|----------------------------------|
|----------------------------------|

|-----------------------------|
|-5h7p5-3h5p3-2h3p2-----------|
|---------------------4p2p0---|
|-----------------------------|
|-----------------------------|
|-----------------------------|

|-----------------------------------|
|-----------------------------------|
|---2b(hold & play note 5x w/p.h.)--|
|-----------------------------------|
|-----------------------------------|
|-----------------------------------|

|---------------------------------------------------------|
|--17h20p17--20b/r--20(bend 4 release-bend)--17-----------|
|---------------------------------------------------------|(toque 2x)
|---------------------------------------------------------|
|---------------------------------------------------------|
|---------------------------------------------------------|

|-12--14---15--17---19--19-19-22b(segure bend)22-22-22-22-22-22|
|-15b-17b--18b-20b--22b----------------------------------------|
|--------------------------------------------------------------|
|--------------------------------------------------------------|
|--------------------------------------------------------------|
|--------------------------------------------------------------|

|-----------------------------------------------------------|
|-----------------------------------------------------------|
|-----------x-7---------------------------------------------|
|----5------x-7-7----7777--7777--7--------------------------|
|----5------x-5-7----7777--7777--7--------------------------|
|17\-3----------5----5555--5555--5------\\------------------|

(chorus)
|---------------------------------------------------------|
|---------------------------------------------------------|
|----------------5----------------7-----------------5-----|
|----------------5----------------7-----------------5-----|
|-------7--5h6h7---7------7--5h6h7---7------7--5h6h7--7---|
|--0--0--------------0--0--------------0--0-------------0-|

|------------------------------|
|------------------------------|
|------7-------------7---------|
|------7-------------7---------|
|5h6h7---7-----5h6h7---7-------|
|-----------0------------------|

|----------------------------------------------------------------|
|----------------------------------------------------------------|
|----------------5--------------------7-------------------5------|
|----------------5--------------------7-------------------5------|
|-------7--5h6h7---7---------7--5h6h7---7--------7--5h6h7---7----|
|-0--0------------------0--0----------------0--0--------------0--|

|-----------------------|
|-----------------------|
|------7-----x-7--------|
|------7-----x-7--x-7---|
|5h6h7---7---x-5--x-7---|
|-----------------x-5---|

|----------------------------------------------------------------|
|----------------------------------------------------------------|
|----------------5--------------------7-------------------5------|
|----------------5--------------------7-------------------5------|
|-------7--5h6h7---7---------7--5h6h7---7--------7--5h6h7---7----|
|-0--0------------------0--0----------------0--0--------------0--|

|-----------------------|
|-----------------------|
|------7-----x-7--------|
|------7-----x-7--x-7---|
|5h6h7---7---x-5--x-7---|
|-----------------x-5---|

|----------------------------------------------------------------|
|----------------------------------------------------------------|
|----------------5--------------------7-------------------5------|
|----------------5--------------------7-------------------5------|
|-------7--5h6h7---7---------7--5h6h7---7--------7--5h6h7---7----|
|-0--0------------------0--0----------------0--0--------------0--|

|---------------------------|
|---------------------------|
|------7-----x-7--------9999|
|------7-----x-7--x-7---9999|
|5h6h7---7---x-5--x-7---7777|
|-----------------x-5-------|
reproducciones 193
Acordes para:
    Composição: Paul Stanley Colaboración y revision:
    • Hudson Silva

    0 comentarios

    mostrar más comentarios

    ¿Conseguiste tocar?

    0 tocaron 0 aún no

    ¡Graba un vídeo tocando Modern Day Delilah y envianoslo!

    00:00 / 00:00
    outros vídeos desta música
    repetir qualidade Automático
    Outros vídeos desta música
    00:00 / 00:00
    Automático
    OK