Cifra Club

Mr Make Believe

Kiss

Tablatura: Principal (guitarra)
Tom: A
Key:
/    = slide up
\    = slide down
b    = bend (whole step)
b^   = bend (1/2 step)
b^^  = bend (1 1/2 steps)
pb   = pre-bend
r    = release-bend
t    = tap with righthand finger
h    = hammer-on
p    = pull-off
~    = Vibrato
*    = Natural Harmonic
#(#) = Trill
**   = Artificial Harmonic
x    = Dead notes (no pitch)
P.M. = Palm mute (- -> underneath indicates which notes)
(\)  = Dive w\bar
(/)  = Release w\bar
Tp   = Tap w\plectrum
Rhythm Fig. 1

E |-------4----------4----------4----------4------|
B |----------2----------2----------2----------2---|
G |---------------2--------2------------2---------|
D |--2--------------------(2)----------(2)--------|
A |--0--------------------------------------------|
E |-----------------------------------------------|


E |-------2----------2----------2----------2------|
B |--3-------3----------3----------3----------3---|
G |--4------------4--------4------------4---------|
D |--4--------------------(4)---------------------|
A |-----------------------------------------------|
E |-----------------------------------------------|




Rhythm Fig. 2

E |-------4----------4----------4----------4------|
B |----------2----------2----------2----------2---|
G |---------------2--------2------------2---------|
D |--2--------------------(2)---------------------|
A |--0--------------------------------------------|
E |-----------------------------------------------|


E |-------2----------2----------2----------2--0---|
B |--3-------3----------3----------3-------3--0---|
G |--4------------4--------4------------4--4------|
D |--4--------------------------------------------|
A |-----------------------------------------------|
E |-----------------------------------------------|




Rhythm Fig. 3

E |--3----3--3----3--3--3--3----3--3----3--3--0---|
B |--3----3--3----3--3--3--3----3--3----3--3--0---|
G |--0----0--0----0--0--0--0----0--0----0--0--0---|
D |--0----0--0----0--0--0--0----0--0----0--0------|
A |--x----x--x----x--x--x--x----x--x----x--x------|
E |--3----3--3----3--3--3--3----3--3----3--3------|


E |--2----2--2----2--2--2-------------------------|
B |--3----3--3----3--3--3-------------------------|
G |--4----4--4----4--4--4-------------------------|
D |--4----4--4----4--4--4-------------------------|
A |--2----2--2----2--2--2-------------------------|
E |-----------------------------------------------|
   < - - - - 2x - - - - >


E |--0------0--0----------2------2--2-------------|
B |--2------2--2----------3------3--3-------------|
G |--2------2--2----------2------2--2-------------|
D |--2------2--2----------0------0--0-------------|
A |--0------0--0----------------------------------|
E |-----------------------------------------------|


E |--0------0--0----------2------2--2/-4--4-------|
B |--2------2--2----------3------3--3/-5--5-------|
G |--2------2--2----------2------2--2/-4--4-------|
D |--2------2--2----------0------0----------------|
A |--0------0--0----------------------------------|
E |-----------------------------------------------|




Rhythm Fig. 4

E |-------5----------5--5-------4----------4------|
B |----------2-------2--2----------2----------2---|
G |--2------------2---------------------2---------|
D |--2---------------------2----------------------|
A |--0---------------------0----------------------|
E |-----------------------------------------------|


E |-------2----------2----------0----------0------|
B |----------2----------2----------2----------2---|
G |---------------2---------------------2---------|
D |--2---------------------2----------------------|
A |--0---------------------0----------------------|
E |-----------------------------------------------|


E |-----------------------------2----------2------|
B |-------3----------3-------------3--------------|
G |----------2----------2-------------------------|
D |---------------2--------4------------4---------|
A |--0--------------------------------------------|
E |-----------------------------------------------|


E |------------------------------0--0--2--2--0----|
B |--2------2--2--2--------------0--0--3--3--0----|
G |--2------2--2--2-------1------1--1--2----------|
D |--2------2--2--2-------2-----------------------|
A |--0------0--0--0-------2-----------------------|
E |------------------3b---0-----------------------|




Rhythm Fig. 5

E |-------5----------5----------4----------4------|
B |----------2----------2----------2----------2---|
G |--2------------2---------------------2---------|
D |--2---------------------2----------------------|
A |--0---------------------0----------------------|
E |-----------------------------------------------|


E |-------2----------2----------0----------0------|
B |----------2----------2----------2----------2---|
G |---------------2---------------------2---------|
D |-(2)--------------------2----------------------|
A |--0---------------------0----------------------|
E |-----------------------------------------------|


E |-----------------------------2----------2------|
B |-------3----------3-------------3--------------|
G |----------2------------------------------------|
D |---------------2-----2--4------------4---------|
A |--0--------------------------------------------|
E |-----------------------------------------------|


E |-----------------------------0--0--2--2--0-----|
B |--2------2--2----------------0--0--3--3--0-----|
G |--2------2--2---------1------1--1--2--2-(0)----|
D |--2------2--2---------2------------------------|
A |--0------0--0---------2------------------------|
E |-----------------3b---0------------------------|




Rhythm Fig. 6

E |-----2-----------2----------2------------------|
B |--------3--------------3----3------------------|
G |-----------2--------2-------2------------------|
D |--0-----------0-------------0------------------|
A |-----------------------------------------------|
E |-----------------------------------------------|




Rhythm Fig. 7

E |-----------------------------------------------|
B |-----------------------------------------------|
G |----------14~-------------------14-------\-----|
D |----------14~-------------------14h16~---\-----|
A |-----/16----------16\------/16-----------------|
E |-----------------------------------------------|
     < - - - 4x - - - >     < - - - 2x - - - >


E |-----------------------------------------------|
B |-----------------------------------------------|
G |----------14~----------------------------------|
D |----------14~----------------------------------|
A |-----/16----------16\--------12/-14~-----------|
E |-----------------------------------------------|




MR. MAKE BELIEVE
Gene Simmons

[Rhy. Fig 1] (3x)

[Rhy. Fig 1]
This time I'll try to get it right
[Rhy. Fig 2]
Just give me one more chance tonight, oh yeah

[Rhy. Fig 3]
I'm tryin' hard to please you, would you believe me if I tell you
Baby won't you try, just one more chance tonight

[Rhy. Fig 4]
Mr. Make Believe, Mr. Make Believe, let me live inside you, please
[Rhy. Fig 5]
Mr. Make Believe, Mr. Make Believe, let me live inside you, please

[Rhy. Fig 1]
And when you tell me what you'd like, oh yeah (oh yeah)
[Rhy. Fig 2]
You'll know you'll never have to fight, whoa no

[Rhy. Fig 3]
I'm tryin' hard to please you, would you believe me if I tell you
Baby won't you try, just one more chance tonight
[Rhy. Fig 6]
One more chance tonight

[Rhy. Fig 5] (2x)
Mr. Make Believe, Mr. Make Believe, let me live inside you, please
(Make Believe, Make Believe, Make Believe,)

[Rhy. Fig 3]
I'm tryin' hard to please you, would you believe me if I tell you
Baby won't you try, just one more chance tonight
[Rhy. Fig 6]
One more chance tonight

[Rhy. Fig 5] (2x)
Mr. Make Believe, Mr. Make Believe, let me live inside you, please
Mr. Make Believe, Mr. Make Believe, let me live inside you, please

[Rhy. Fig 5 w/ Rhy. Fig 7]
Mr. Make Believe, Mr. Make Believe, let me live inside you, please
Mr. Make Believe, Mr. Make Believe, let me live inside you, please

(repeat and fade)
reproducciones 100
Acordes para:
    Composição: Gene Simmons

    0 comentarios

    mostrar más comentarios

    ¿Conseguiste tocar?

    0 tocaron 0 aún no

    ¡Graba un vídeo tocando Mr Make Believe y envianoslo!

    00:00 / 00:00
    outros vídeos desta música
    repetir qualidade Automático
    Outros vídeos desta música
    00:00 / 00:00
    Automático
    OK