Cifra Club

Psycho Circus

KISS

Cifrado: Principal (guitarra y guitarra eléctrica)
tono: F# (con acordes en la forma de G) Afinación: Eb Ab Db Gb Bb Eb
Rhythm fig. 1
E|----------------------------------------------------|
B|----------------------------------------------------|
G|--4-------------------------------------------------|
D|--4-------------------------------------------------|
A|--2-------------------------------------------------|
E|----------------------------------------------------|

Rhythm fig. 2
E|---------3------------------------------------------|
B|---------3------------------------------------------|
G|--4-----------------2-------------------------------|
D|--4--5-5-----5-4-5--2-------------------------------|
A|--2--5-5-----5-4-5--0-------------------------------|
E|-----3-3-----3-2-3----------------------------------|
Rhythm fig. 2a
E|----------------------------------------------------|
B|----------------------------------------------------|
G|--11--7-7----7-6-7--9-------------------------------|
D|--9---5-5----5-4-5--7-------------------------------|
A|----------------------------------------------------|
E|----------------------------------------------------|
Rhythm fig. 3
E|-----------5----5---------------5--3\5-5------------|
B|-----------5----5---------------5--3\5-5------------|
G|--4---6-7--6----4----4---6-7----6--4\6-6------------|
D|--4---6-7--7----5----4---6-7----7--5\7-7------------|
A|--2---4-5--7----5----2---4-5----7--5\7-7------------|
E|-----------5----3---------------5--3\5-5------------|
E|-----------5----5--------------------2-4------------|
B|-----------5----5--------------------2-4------------|
G|--4---6-7--6----4----4---6-7---------3-4------------|
D|--4---6-7--7----5----4---6-7------2--4-5------------|
A|--2---4-5--7----5----2---4-5--x~--2--4-5------------|
E|-----------5----3-------------x~--0--2-3------------|
Rhythm fig. 3a
E|---------0------3-----------0-----------------------|
B|----------3-----3------------3----------------------|
G|--4---6----2-2--0----4---6----2-2--7\9-9------------|
D|--4---6-0----2--0----4---6-0----2--5\7-7------------|
A|--2---4------0--x----2---4------0----0-0------------|
E|----------------3-----------------------------------|
E|---------0------3----------0------------------------|
B|----------3-----3----------3------------------------|
G|--4---6----2-2--0----4---6-2----9--11\12------------|
D|--4---6-0----2--0----4---6-0----9--11\12------------|
A|--2---4------0--x----2---4------7--9-\10------------|
E|----------------3---------------0-------------------|
Rhythm fig. 4
E|----------------------------------------------------|
B|----------------------------------------------------|
G|---------7-6----------7-6--------7-6---------7-6----|
D|-------5-----7--5-5~------7~--4~-----7--4-4~-----4~-|
A|----------------------------------------------------|
E|----------------------------------------------------|
E|----------------------------------------------------|
B|----------------------------------------------------|
G|-------7-6----------7-6--------7-6---------7-6-11---|
D|---5~------7--5-5~------5~--7~-----7~--8-8--------9~|
A|----------------------------------------------------|
E|----------------------------------------------------|
Rhythm fig. 4a
E|----------------------------------------------------|
B|----------------------------------------------------|
G|----------------------------------------------------|
D|----------------------------------------------------|
A|---5-4---------5-4--------5-4---------5-4-------5-4-|
E|-3-----5--3-3~-----5~--2~-----5--2-2~-------2-3~----|
E|----------------------------------------------------|
B|----------------------------------------------------|
G|----------------------------------------------------|
D|----------------------------------------------------|
A|--------5-4-------5-4--------7-6--/9----------------|
E|-5-3-3~-----3~-5~-----5-6-6----------7~-------------|
Rhythm fig. 4b
E|---4------2-----3-----5--6---7----------------------|
B|---3------2-----3-----5--6---7----------------------|
G|---4------3-----4-----6--7---8----------------------|
D|---5------4-----5-----7--8---9----------------------|
A|---5------4-----5-----7--8---9-----x~---------------|
E|---3------2-----3-----5--6---7-----x~---------------|
Rhythm fig. 5
E|---7---3---5---7--3--5---3--5-----------------------|
B|---7---3---5---7--3--5---3--5-----------------------|
G|---8---4---6---8--4--4---4--4-----------------------|
D|---9---5---7---9--5--7---5--7-----------------------|
A|---9---5---7---9--5--7---5--7-----------------------|
E|---7---3---5---7--3--5---3--5-----------------------|

Rhythm fig. 6 (Clean Electric w/chorus)
E|--------0------------0------------0------------0----|
B|----------0--------3---3------------0------------3--|
G|------4-----4----2-------2------2-----2------0-----0|
D|----4----------0--------------2------------0--------|
A|--2-------------------------0-----------------------|
E|-----------------------------------------3----------|
   End. 1
E|-----------------0-0-0-0-0-0------------------3-----|
B|-----------------3-3-3-3-3-3------------------3-----|
G|--4-4-4-4-4--6---2-2-2-2-2-2------------------0-----|
D|--4-4-4-4-4--6---0-0-0-0-0-0----2-2-2-2-2--4--0-----|
A|--2-2-2-2-2--4------------------2-2-2-2-2--4--x-----|
E|--------------------------------0-0-0-0-0--2--3-----|
Rhythm fig. 6a  (Clean Electric w/chorus)
E|--0-------0-------0-------0-------------------------|
B|--0-------3-------0-------3-------------------------|
G|--4-------2-------2-------0-------------------------|
D|--4-------0-------2-------0-------------------------|
A|--2---------------0-------x-------------------------|
E|--------------------------3-------------------------|
     (Strum and let ring with verse)
   End. 1 (Distorted Electric)
E|-----------------0-0-0-0-0-0------------------3-----|
B|-----------------3-3-3-3-3-3------------------3-----|
G|--4-4-4-4-4--6---2-2-2-2-2-2------------------0-----|
D|--4-4-4-4-4--6---0-0-0-0-0-0----2-2-2-2-2--4--0-----|
A|--2-2-2-2-2--4------------------2-2-2-2-2--4--x-----|
E|--------------------------------0-0-0-0-0--2--3-----|
Rhythm fig. 6b (Distorted Electric)
E|----------------------------------------------------|
B|----------------------------------------------------|
G|---4-4-/--------------------------------------------|
D|---4-4-/--------------------------------------------|
A|---2-2-/--------------------------------------------|
E|----------------------------------------------------|
Riff. 1
E|----------------------------------------------------|
B|----------------------------------------------------|
G|----------------------------------------------------|
D|----------------------------------------------------|
A|-----x~---------------------------------------------|
E|-----x~---------------------------------------------|
Riff. 2
E|----------------------------------------------------|
B|---5-4~-4-5-7-8-------------------------------------|
G|----------------7-6~~-------------------------------|
D|----------------------------------------------------|
A|----------------------------------------------------|
E|----------------------------------------------------|
Riff. 2a
E|----------------------------------------------------|
B|--17-16~--16-17-19-20-------------------------------|
G|----------------------19-18~------------------------|
D|----------------------------------------------------|
A|----------------------------------------------------|
E|----------------------------------------------------|
Riff. 3
E|----------------------------------------------------|
B|---5-4~-4-5-7-8-------------------------------------|
G|----------------7---------6~------------------------|
D|------------------9-5-7~~---------------------------|
A|----------------------------------------------------|
E|----------------------------------------------------|
Riff. 3a
E|----------------------------------------------------|
B|--17-16~--16-17-19-20-------------------------------|
G|----------------------19----------18~---------------|
D|-------------------------21-17-19~------------------|
A|----------------------------------------------------|
E|----------------------------------------------------|
Riff. 4
E|----------------------------------------------------|
B|---5-4~-4-5-7-8--10b-r10~-12~-10h^12~-12~-14~-12h^14|
G|----------------------------------------------------|
D|----------------------------------------------------|
A|----------------------------------------------------|
E|----------------------------------------------------|
E|-------------12-------------------------------------|
B|--14~--12-14-15b~~----------------------------------|
G|----------------------------------------------------|
D|----------------------------------------------------|
A|----------------------------------------------------|
E|----------------------------------------------------|
Riff. 4a
E|---------------------------------19~-17h^19~-19~-21~|
B|--17-16~--16-17-19-20---22b-r22~--------------------|
G|----------------------------------------------------|
D|----------------------------------------------------|
A|----------------------------------------------------|
E|----------------------------------------------------|
E|--19h^21~-19-21-22b~~-------------------------------|
B|----------------------------------------------------|
G|----------------------------------------------------|
D|----------------------------------------------------|
A|----------------------------------------------------|
E|----------------------------------------------------|
Riff. 5
E|----------------------------------------------------|
B|----------------------------------------------------|
G|----------------------------------------------------|
D|---9~~~~-(| With Feedback)----------------------------|
A|----------------------------------------------------|
E|----------------------------------------------------|
Riff. 6
E|-----7-7-----7-7-----7-----------------------7------|
B|-----7-7-----7-7-----7-----------------------7------|
G|--9b------9b------9b----9b-r9p^7---h^9~~------------|
D|---------------------------------9------------------|
A|----------------------------------------------------|
E|----------------------------------------------------|
E|-----7-7-----7-7-----7----7-----9------11-----------|
B|-----7-7-----7-7-----7----9b~~--12b~~~-13b~~~-------|
G|--9b------9b------9b--------------------------------|
D|----------------------------------------------------|
A|----------------------------------------------------|
E|----------------------------------------------------|
E|-----7-7-----7-7-----7------------------------------|
B|-----7-7-----7-7-----7------------------------------|
G|--9b------9b------9b----9b-r9p^7---h^9~~------------|
D|---------------------------------9------------------|
A|----------------------------------------------------|
E|----------------------------------------------------|
Solo
E|-----7-7-----7-7-----7-----------------------7------|
B|-----7-7-----7-7-----7-----------------------7------|
G|--9b------9b------9b----9b-r9p^7---h^9~~------------|
D|---------------------------------9------------------|
A|----------------------------------------------------|
E|----------------------------------------------------|
E|-----7-7-----7-7-----7----7-----9------11-----------|
B|-----7-7-----7-7-----7----9b~~--12b~~~-13b~~~-------|
G|--9b------9b------9b--------------------------------|
D|----------------------------------------------------|
A|----------------------------------------------------|
E|----------------------------------------------------|
E|-----7-7-----7-7-----7----------------------7---9---|
B|-----7-7-----7-7-----7----------------------9b--12b-|
G|--9b------9b------9b----9b-r9p^7---h^9~~------------|
D|---------------------------------9------------------|
A|----------------------------------------------------|
E|----------------------------------------------------|
E|-11--12--14---19---19-------------------------------|
B|-13b-15b-17b--22b--22b------------------------------|
G|----------------------------------------------------|
D|----------------------------------------------------|
A|----------------------------------------------------|
E|----------------------------------------------------|
[Intro] Bm g a
Bm A D
Hello
A
Here i am!
G Bm A D
Here we are, we are one
A G A
I've been waiting for this night to come
Bm A D
Get up! get up!
A G
Now it's time for me to take my place
Bm A D
The make-up runnin' down my face
E G A
We're exiled from the human race
Bm G A
You're in the psy
Bm G A
You're in the psycho circus
Bm G A
You're in the psy
Bm G
You're in the psycho circus
A Bm A D
I say welcome to the show
A G
I've been waiting here to be your guide
Bm A D
So come
A G
Reveal the secrets that you keep inside
Bm A D
Step up!

A G
No one leaves 'til the night is done
Bm D
The amplifier starts to hum
E G A
The carnival has just begun
Bm G A
You're in the psy
Bm G A
You're in the psycho circus
Bm G A
You're in the psy
Bm G A
You're in the psycho circus
A G
I say welcome to the show
F#4/7 F#
Welcome to the show
G
Welcome to the show, the show
A A#º
The show
Bm B4 B G A G A
F# Bm G A Bm G A
Bm G A Bm G A
Bm B D A G6
Bm D A G6
I, i've been waiting here to be your guide
Bm D
So come
A G6
Reveal the secrets that you keep inside
Bm G D
Step up!
A G6
No one leaves 'til the night is done
Bm D
The amplifier starts to hum
E G A
The carinval has just begun
Bm G A
You're in the psy
Bm G A
You're in the psycho circus
Bm G A
You're in the psy
Bm G A
You're in the psycho circus
Bm G A
You're in the psy
Bm G A
You're in the psycho circus
Bm G A
00:00 / 00:00
Otros videos de esta canción
Repetir
Otros videos de esta canción
Composición de Curtis Cuomo / Paul Stanley
Colaboración y revisión:
  • Josué Braun
960 exhibiciones
    • ½ Tono
    • A
    • Bb
    • B
    • C
    • Db
    • D
    • Eb
    • E
    • F
    • F#
    • G
    • Ab
  • Agregar a la lista
    00:00 / 00:00
    OK