Cifra Club

Rock & Roll Hell

Kiss

Tablatura: Principal (guitarra)
reproducciones 25
Tono: G
Riff 1:

               G                  D                   G      Em
E|-------------3------------------2-------------------3----------|
B|-------------3------------------3-------------------3----------|
G|-------------0--2---------------2--2----------------0--2---1---|
D|-------------0--2---------------0--2----------------0--2---2---|
A|-------------2--0------------------0----------------2--0---2---|
E|-0-0-1-2-3~--3------0-0-1-2-3~----------0-0-1-2-3~--3------0---|

Riff 2:

E|-----------------------|
B|-----------------------| 
G|-----------------------|
D|--5-------7------------|
A|--3-------5------------|
E|-----------------------|

Riff 3:
             G             G
E|-----------3-------------3--------------------------|
B|-----------3-------------3--------------------------|
G|-----------0--2----------0---------2----------------|
D|--2--------0--2----------0---------2--2p0--------2--|
A|--2--------2--0----------2---------0------2p0----2--|
E|--0--------3-------------3--------------------3--0--|

Riff 4:
                        G               G
E|----------------------3---------------3----------------------|
B|----------------------3---------------3----------------------|
G|----------------------0------2--------0----------------------|
D|----------------------0------2--------0---2------------------|
A|----------------------2------0--------2---2------------------|
E|-0-0-0-0-0-(...)------3---------------3---0---0-0-0-0-0 (...)|
  PM..........

Intro - (Riff 1)

(baixo e bateria sozinhos) 
Been under fire sixteen years, just waitin' for his time tocome
He fought the lies, fought back the tears, can't wait to hearthat starting gun

(Riff 2)
There ain't nobody gonna step on his dreams
So he held his hands high and screamed


(Riff 3)
Get me out of this rock and roll hell, take me far away
Get me out of this rock and roll hell
Get me out of this rock and roll hell, I need to get away
Get me out of this rock and roll hell

(Riff 4)
He's on the edge, he can feel it in his heart
This time the pressure's really on
He's gonna fight it, might even steal a guitar
This time tomorrow he'll be gone

(Riff 2)
There ain't nobody gonna tell him what to do
Think he's a little like me and you

(Riff 3)
Get me out of this rock and roll hell, take me far away
Get me out of this rock and roll hell
Get me out of this rock and roll hell, I need to get away
Get me out of this rock and roll hell

(Solo & Riff 1) 

(Riff 4)
He's on the run, won't stand for second place, but his turn maynever come
He's not a victim, you can see it in his face
But he can't see what he's become

(Riff 2)
Well, he wants it bad, but he wants no charity
He seems to think it's his destiny
 
(Riff 3)
Get me out of this rock and roll hell, I need to get away
Get me out of this rock and roll hell
Get me out of this rock and roll hell, take me far away
Get me out of this rock and roll hell
Get me out of this rock and roll hell, I need to get away
Get me out of this rock and roll hell
Get me out of this rock and roll hell, take me far away
Get me out of this rock and roll hell
Get me out of this rock and roll hell, I need to get away
Get me out of this rock and roll hell
Acordes para:
    Compositor: Bryan Adams / Gene Simmons / Jim Vallance Colaboración y revision:
    • Knupp Mello

    0 comentarios

    mostrar más comentarios

    ¿Conseguiste tocar?

    1 tocaron 0 aún no

    ¡Graba un vídeo tocando Rock & Roll Hell y envianoslo!

    00:00 / 00:00
    outros vídeos desta música
    repetir qualidade Automático
    Outros vídeos desta música
    00:00 / 00:00
    Automático
    OK