Cifra Club

Shock Me

Kiss

Tablatura: Principal (guitarra)
reproducciones 311
Tono: D
  D  A      D  A    D A  G       D G D G D    G       A
E|---------------------------------------------------------|
B|-------------------------3--3----7-8-7-8-7---------------|
G|--7--6-6-6--7--6--6-7-6--4--4----7-7-7-7-7----4--4-4--6--|
D|--7--7-7-7--7--7--7-7-7--5--5----7-9-7-9-7----5--5-5--7--|
A|--5--7-7-7--5--7--7-5-7-----------------------5--5-5--7--|
E|---------------------------------------------------------|

RhythmFig.2

     A                              D G D G D   G        A
E|---------------------------------------------------------|
B|---------------------------------7-8-7-8-7---------------|
G|--6------------------------------7-7-7-7-7----4--4-4--6--|
D|--7------------------------------7-9-7-9-7----5--5-5--7--|
A|--7-------------------------------------------5--5-5--7--|
E|---------------------------------------------------------|
    Your Ligthnin's all I need ,
    My Satisfaction grows ...


RhythmFig.3

     A   B     A  B  A  B    E   F#    E  F# E  F#
E|-------------------------------------------------|
B|-------------------------------------------------|
G|--------------------------9-s-11-11-9--11-9--11--|
D|--7-s-9--9--7--9--7--9----9-s-11-11-9--11-9--11--|
A|--7-s-9--9--7--9--7--9----7-s-9--9--7--9--7--9---|
E|--5-s-7--7--5--7--5--7---------------------------|
   Dont cut the power on me         ,              

     D                     C  G
E|------------------------------|
B|------------------------------|
G|--7---------------------5-----|
D|--7---------------------5--5--|
A|--5---------------------3--5--|
E|---------------------------3--|
    Im feelin low so get me high ..

                         /\/\/\
                         NOT SURE ABOUT THIS ?!
 
 
RhythmFig.4

     A         G                    D    D  D    D     C  C
E|-------------------------------------------------|--------|
B|-------------------------------------------------|--------|
G|---------------------------------7----7--7----7--|--5--5--|
D|--7----7----5--------------------7----7--7----7--|--5--5--|
A|--7----7----5--------------------5----5--5----5--|--3--3--|
E|--5----5----3------------------------------------|--------|
   Shock me   make me feel better                 
   Shock me   put on your black leather

     A         G                    D    D  D    D     E
E|-------------------------------------------------|--------------------|
B|-------------------------------------------------|--------------------|
G|---------------------------------7----7--7----7--|--9-9-9-9-9-9-9-9-9-|
D|--7----7----5--------------------7----7--7----7--|--9-9-9-9-9-9-9-9-9-|
A|--7----7----5--------------------5----5--5----5--|--7-7-7-7-7-7-7-7-7-|
E|--5----5----3------------------------------------|--------------------|
   Shock me   we can come together                                (slide down)




Solo



Eb|--/12-12-12-12-12-12-12\--------12------12-----------/12-15-12-15-|
Bb|--/12-12-12-12-12-12-12\---/12------12-----15~--------------------|
Gb|------------------------------------------------------------------|
Db|------------------------------------------------------------------|
Ab|------------------------------------------------------------------|
Eb|------------------------------------------------------------------|
                              Let ring - - - >


Eb|--15b-----15b-----15b------15b----15b---15b--r15\-----------------|
Bb|------------------------------------------------------------------|
Gb|---------------------------------------------------------5--7-----|
Db|-----------------------------------------------------5h7----------|
Ab|------------------------------------------------------------------|
Eb|------------------------------------------------------------------|


Eb|-------------------------------------------8p7p5------------------|
Bb|-------------------------------------------------8-------8p7p5----|
Gb|--7b----7b----7b--r7-5h7p5----5h6------------------------------7--|
Db|---------------------------7--------------------------------------|
Ab|------------------------------------------------------------------|
Eb|------------------------------------------------------------------|
                             Let ring        < - - - - 2x - - - - - >


Eb|--8p7p5-----------------------------------------------------------|
Bb|--------8--8p7p5------8p7p5---5-----------------------------------|
Gb|-----------------7----------7-----7b-r7p5---7---5--5h6------------|
Db|------------------------------------------7---7---------7-5-7-----|
Ab|------------------------------------------------------------------|
Eb|------------------------------------------------------------------|
    < - - - 2x - - - >


Eb|----------------------12b^^----12--11--10--12b^^------12--11--10--|
Bb|-------10h12p10----10---------------------------------------------|
Gb|--/11-----------11------------------------------------------------|
Db|------------------------------------------------------------------|
Ab|------------------------------------------------------------------|
Eb|------------------------------------------------------------------|


Eb|--8h10p8-------------------------17-------------------------------|
Bb|---------10~---------17-------17----20p17-------17-17-20p17-------|
Gb|-----------------/19----19b----------------19b--------------19b---|
Db|------------------------------------------------------------------|
Ab|------------------------------------------------------------------|
Eb|------------------------------------------------------------------|
                           < - - - 3x - - - >


Eb|------20b----20b----20b~------20b----20--17--20-17h20p17-----17---|
Bb|--17------------------------------------------------------20------|
Gb|------------------------------------------------------------------|
Db|------------------------------------------------------------------|
Ab|------------------------------------------------------------------|
Eb|------------------------------------------------------------------|


Eb|-------17-------17------17--20-17-19-17---------------------------|
Bb|-(17)--17-(17)--17------17--------------20-17-19-17---------------|
Gb|--19b------19b------19b-----------------------------19p17----19---|
Db|----------------------------------------------------------19------|
Ab|------------------------------------------------------------------|
Eb|------------------------------------------------------------------|


Eb|------------------------------------------------------------------|
Bb|----------------------------10b---r10-b10---r10-10b----r10-10b----|
Gb|-----17-----------------------------------------------------------|
Db|--19----19-17h19p17----17\----------------------------------------|
Ab|--------------------19--------------------------------------------|
Eb|------------------------------------------------------------------|
                               Pick only first - - - - - - - - - >


Eb|------------------------------------------------------------------|
Bb|--10--10--10--10--10--10-10p7~------------------------------------|
Gb|--------------------------------9b---r9-9b---r9-9b---r9-9b--------|
Db|------------------------------------------------------------------|
Ab|------------------------------------------------------------------|
Eb|------------------------------------------------------------------|
    Semi-harm (dig in) - - >


Eb|---------------------------------7-10b---10~----7h10p7----7-------|
Bb|-------------------------------7-----------------------10---10b---|
Gb|--9--9--9--9--9--9-9p7~----9b-------------------------------------|
Db|------------------------------------------------------------------|
Ab|------------------------------------------------------------------|
Eb|------------------------------------------------------------------|
     Semi-harm (dig in)                  Wide vib.


Eb|------------------------------------------------7----------7------|
Bb|----7h10p7---7---------------------------7-9-10-----7-9-10--------|
Gb|-----------9---10-9-7---9---7---7h9-7-----------------------------|
Db|----------------------9---9---9-----------------------------------|
Ab|------------------------------------------------------------------|
Eb|------------------------------------------------------------------|


Eb|---------7-------------7------------------------------------------|
Bb|--7-9-10---10-9-7-9-10---10---7h10p7------------------------------|
Gb|-------------------------------------9--7h9p7-------9b------------|
Db|----------------------------------------------9-------------------|
Ab|------------------------------------------------------------------|
Eb|------------------------------------------------------------------|


Eb|------------------------------------------------------------------|
Bb|------------------------------------------------------------------|
Gb|--r9~-------9b--r9p7--9--9----------------------------------------|
Db|----------------------------7~------------------------------------|
Ab|------------------------------------------------------------------|
Eb|------------------------------------------------------------------|
Acordes para:
    Compositor: Ace Frehley Colaboración y revision:
    • FEL4A

    0 comentarios

    mostrar más comentarios

    ¿Conseguiste tocar?

    1 tocaron 0 aún no

    ¡Graba un vídeo tocando Shock Me y envianoslo!

    00:00 / 00:00
    outros vídeos desta música
    repetir qualidade Automático
    Outros vídeos desta música
    00:00 / 00:00
    Automático
    OK