Cifra Club

Shout it out loud

KISS

Cifrado: Principal (guitarra y guitarra eléctrica)
tono: Eb
Eb Tuning

Key:
/    = slide up
\    = slide down
b    = bend (whole step)
b^   = bend (1/2 step)
pb   = pre-bend
r    = release-bend
h^   = hammer-on
p^   = pull-off
~    = Vibrato
*    = Natural Harmonic
#(#) = Trill
**   = Artificial Harmonic
x    = Muted String (Palm Muting)
X    = Muted String (Fretboard Muting)


What can be said about this song?? Great hooks galore!!! Cool Lead parts and
unison riffing ala Detroit Rock City. The whole album has this cool feel... 
Enjoy!



Intro Riff. 1

Eb|----------------------------------------------------|
Bb|----16-16b~--16-16b~--16-16b-r16-14~----------------|
Gb|----------------------------------------------------|
Db|----------------------------------------------------|
Ab|----------------------------------------------------|
Eb|----------------------------------------------------|


Intro Riff. 1a

Eb|----------------------------------------------------|
Bb|----12~-12~--12~-12~--12-12b-r12-10~----------------|
Gb|----------------------------------------------------|
Db|----------------------------------------------------|
Ab|----------------------------------------------------|
Eb|----------------------------------------------------|


Rhythm Fig. 1

Eb|----------------------------------------------------|
Bb|----------------------------------------------------|
Gb|--4---------7--2--7--2-----4-4-4----7--2--7--2------|
Db|--4---------7--2--7--2-----4-4-4----7--2--7--2------|
Ab|--2---------5--0--5--0-----2-2-2----5--0--5--0------|
Eb|----------------------------------------------------|

Rhythm Fig. 2

Eb|----------------------------------------------------|
Bb|----------------------------------------------------|
Gb|----------------------------------------------------|
Db|-7-7-9--7-9-7--7-9-7-9--2-2-4--2-2-4-2--------------|
Ab|-5-5-5--5-5-5--5-5-5-5--0-0-0--0-0-0-0--2-2-4---2-4-|
Eb|----------------------------------------0-0-0-/4----|
00:00 / 00:00
Otros videos de esta canción
Repetir
Otros videos de esta canción
Composición de Bob Ezrin / Gene Simmons / Paul Stanley
642 exhibiciones
    • ½ Tono
    • A
    • Bb
    • B
    • C
    • Db
    • D
    • Eb
    • E
    • F
    • F#
    • G
    • Ab
  • Agregar a la lista
    00:00 / 00:00
    OK