Cifra Club

Strutter

KISS

Cifrado: Principal (guitarra y guitarra eléctrica)
tono: A
[Intro] A#  F#  C#
        A#  F#  C#  G#

A#       F#            C#
I know a thing or two about her
A#      F#                 C#  G#
I know she'll only make you cry
A#             F#                 C#
She'll let you walk the streets beside her
A#           F#           C#       G#
But when she wants she'll pass you by

      A#      F#      A#      F#
E|--------------------------------|
B|--------------------------------|
G|-3--33-----------3--33----------|
D|-3--33---4--44---3--33---4--44--|
A|-1--11---4--44---1--11---4--44--|
E|---------2--22-----------2--22--|

Everybody says she's lookin' good
And the lady knows it's understood
Strutter!

( G#  A#  G#  A# )
( G#  A#  A#  C# )
( D#  C#  A#  G#  F )

E|-----------------------------------------|
B|-----------------------------------------|
G|---------------------3-6-8-8~--6-3-------|
D|-6-8-8~-6-88--6-88---3-6-8-8~--6-3--6-3--|
A|-6-8-8~-6-88--6-88---1-4-6-6~--4-1--6-3--|
E|-4-6-6~-4-66--4-66------------------4-1--|

E|-----------------------------------------|
B|-----------------------------------------|
G|---------------------3-6-8-8~--6-3-------|
D|-6-8-8~-6-88--6-88---3-6-8-8~--6-3--6-3--|
A|-6-8-8~-6-88--6-88---1-4-6-6~--4-1--6-3--|
E|-4-6-6~-4-66--4-66------------------4-1--|

A#            F#            C#
She wears her satins like a lady
A#           F#        C#     G#
She gets her way just like a child
A#           F#                C#
You take her home and she says: maybe, baby
A#            F#                  C#  G#
She takes you down and drives you wild

      A#      F#      A#      F#
E|--------------------------------|
B|--------------------------------|
G|-3--33-----------3--33----------|
D|-3--33---4--44---3--33---4--44--|
A|-1--11---4--44---1--11---4--44--|
E|---------2--22-----------2--22--|

Everybody says she's lookin' good
And the lady knows it's understood
Strutter!

( G#  A#  G#  A# )
( G#  A#  A#  C# )
( D#  C#  A#  G#  F )

E|-----------------------------------------|
B|-----------------------------------------|
G|---------------------3-6-8-8~--6-3-------|
D|-6-8-8~-6-88--6-88---3-6-8-8~--6-3--6-3--| (3x)
A|-6-8-8~-6-88--6-88---1-4-6-6~--4-1--6-3--|
E|-4-6-6~-4-66--4-66------------------4-1--|

A#       F#            C#
I know a thing or two about her
A#      F#                 C#  G#
I know she'll only make you cry
A#             F#                 C#
She'll let you walk the streets beside her
A#           F#           C#       G#
But when she wants she'll pass you by

      A#      F#      A#      F#
E|--------------------------------|
B|--------------------------------|
G|-3--33-----------3--33----------|
D|-3--33---4--44---3--33---4--44--|
A|-1--11---4--44---1--11---4--44--|
E|---------2--22-----------2--22--|

Everybody says she's lookin' good
And the lady knows it's understood
Strutter!

( G#  A#  G#  A# )
( G#  A#  A#  C# )
( D#  C#  A#  G#  F )

E|-----------------------------------------|
B|-----------------------------------------|
G|---------------------3-6-8-8~--6-3-------|
D|-6-8-8~-6-88--6-88---3-6-8-8~--6-3--6-3--| (3x)
A|-6-8-8~-6-88--6-88---1-4-6-6~--4-1--6-3--|
E|-4-6-6~-4-66--4-66------------------4-1--|
00:00 / 00:00
Otros videos de esta canción
Repetir
Otros videos de esta canción
Composición de Gene Simmons / Paul Stanley
Colaboración y revisión:
  • Luiz Souza
  • Daniel Faccini
  • RafaelTeodoro
2.640 exhibiciones
    • ½ Tono
    • A
    • Bb
    • B
    • C
    • Db
    • D
    • Eb
    • E
    • F
    • F#
    • G
    • Ab
  • Agregar a la lista
    00:00 / 00:00
    OK