Cifra Club

Sure know Something

Kiss

Tablatura: Principal (guitarra)
Tom: F# (con acordes en la forma de G) Afinação: Eb Ab Db Gb Bb Eb
[Intro]

E|------------------------------------------------------------------------------------|
B|------------------------------------------------------------------------------------|
G|------------------------------------------------------------------------------------|
D|-----------------------------------------------------------------------5h7-5--------|
A|------5h7-5---5-7--5h7-5----------------------------------5-5h7-5-------------7-5-7-|
E|-12/--------7------------7-3-5--3h5-3-0-3-5--3h5-3-0-3-7----------7-5---------------|

Riff Antes do começo da musica:
E|------------------------------------------------------------------------------------|
B|---8----------8---------------------------------------------------------------------|
G|-------7----------7-----------------------------------------------------------------|
D|-----------9----------9-------------------------------------------------------------|
A|------------------------------------------------------------------------------------|
E|------------------------------------------------------------------------------------|

          Em
I've been up and down, I've been all around
        Am
I was mystified, almost terrified
    Bm                    Am               Em
But late at night I still hear you call my name
          Em
I've been on my own, I've been all alone
      Am
I was hypnotized, I felt paralyzed
    Bm                    Am                Em    C  D
But late at night I still want you just the same

D
I've been a gambler, but I'm nobody's fool
      C    G/B  Am   G     C    G/B  Am   G     D
And I sure know something, sure know something
D
You showed me things they never taught me in school
      C    G/B  Am   G     C    G/B  Am   G     D
And I sure know something, sure know something
D
No one can make me feel the way that you do
       C    G/B  Am   G     D
And I sure know something, aha

      Em
I was seventeen, you were just a dream
      Am
I was mesmerized, I felt scared inside
    Bm                   Am                 Em
You broke my heart and I still can feel the pain
          Em
I've been counted out, I've had fear and doubt
          Am
I've been starry eyed, never satisfied
       Bm                    Am                 Em  C D
'Cause late at night I still need you just the same

D
I've been a gambler, but I'm nobody's fool
      C    G/B  Am   G     C    G/B  Am   G     D
And I sure know something, sure know something
D
You showed me things they never taught me in school
      C    G/B  Am   G     C    G/B  Am   G     D
And I sure know something, sure know something
D
No one can make me feel the way that you do
       C    G/B  Am   G     D
And I sure know something, aha

( Em Am Bm Am D )

          Em
I've been counted out, I've had fear and doubt
          Am
I've been starry eyed, never satisfied
       Bm                     Am                Em
'Cause late at night I still need you just the same
                    C D
Just the same, yeah

D
I've been a gambler, but I'm nobody's fool
      C    G/B  Am   G     C    G/B  Am   G     D
And I sure know something, sure know something
D
You showed me things they never taught me in school
      C    G/B  Am   G     C    G/B  Am   G     D
And I sure know something, sure know something
D
No one can make me feel the way that you do
       C    G/B  Am   G     D
And I sure know something, aha
D
I've been a gambler, but I'm nobody's fool
      C    G/B  Am   G     C    G/B  Am   G     D
And I sure know something, sure know something
D
You showed me things they never taught me in school
      C    G/B  Am   G     C    G/B  Am   G     D
And I sure know something, sure know something
D
No one can make me feel the way that you do
       C    G/B  Am   G     D
And I sure know something, aha

( D C G/B Am G )
( D C G/B Am G )
reproducciones 8.508
Acordes para:
    Composição: Paul Stanley / Vini Poncia Colaboración y revision:
    • Igor Silva
    • Paulo Schwab

    0 comentarios

    mostrar más comentarios

    ¿Conseguiste tocar?

    3 tocaron 1 aún no

    ¡Graba un vídeo tocando Sure know Something y envianoslo!

    00:00 / 00:00
    outros vídeos desta música
    repetir qualidade Automático
    Outros vídeos desta música
    00:00 / 00:00
    Automático
    OK