Cifra Club

Then She Kissed Me

Kiss

Tablatura: Principal (guitarra)
reproducciones 115
Tono: D
Intro: (D) - Riff 1 
 
Riff 1 
G|---------------------- 
D|-------4-5-4--------- 
A|---5-----------5------ 
E|----------------------- 
 
Riff 2 
G|--------------------------------------------------------- 
D|-----4-5-4----------------4-5-4-------4-5-4---------- 
A|--5-------------4-5-4-5-----------5------------------- 
E|-------------5------------------------------------------- 
 
Riff 3 
G|--------------------------------------------------------------------------------------------------- 
D|-------------------4-5-4-------------------4-5-4--------4-5-4--------------------4-5-4------- 
A|-----2-3-2-----5-------------2-3-2----5-------------5--------------4-5-4----5-----------5--- 
E|--3-------------------------3---------------------------------------5----------------------------- 
 
D   (repete riff 2) 
  Well, she walked up to me 
                 A                                    D 
  And she asked me if I wanted to dance 
          D 
  She looked kind of nice 
          A                                   D 
  And so I said I might take a chance 
G                                   D           (riff 3) 
  When we danced she held me tight 
G                                     D 
  And when I walked her home that night 
D                              A 
  All the stars were shinin' bright 
                        D 
  And then she kissed me 
D     (riff 2)                   A                                   D 
  Each time I saw her I couldn't wait to see her again 
D                             A                                                D 
  I wanted to let her know that she was more than a friend 
G                           D              G                         D      (riff 3) 
  I didn't know just what to do,    so I whispered I love you 
D                             A                                         D 
  She said that she loved me too and then she kissed me 
         D 
  She kissed me in a way that I'd never been kissed before 
          E                                                                               A 
  She kissed me in a way that I want to be kissed forever more 
     D                                            A                                     D 
  I knew that she was mine, so I gave her all the love that I had 
          D                                A                                             D 
  And one day she took me home to meet her ma and her dad 
G                               D                G                              D 
  Then I asked her to be my bride and always be right by my side 
   D                            A                                       D 
  Felt so happy, she almost cried and then she kissed me 
 
   Solo -  
      D                     A                D 
e|------------------------------------------------------------------------------------------- 
B|--7/5--------------------------------7-----------7/5-----7----5---7/5---------------- 
G|--------7----------------------7/9-----9---9---------7-------------------------------- 
D|-----------4/5---7---7------------------------------------------------------------------ 

      D                      A               D 
e|---------------------------------------------------------12/10-------10---------------- 
B|--7/5--------------------------------7-------------------------------------------------- 
G|--------7----------------------7/9-----9---9------------------------------------------- 
D|-----------4/5---7---7------------------------------------------------------------------ 
 
G                               D                G                              D 
  Then I asked her to be my bride and always be right by my side 
   D                            A                                       D 
  Felt so happy, she almost cried and then she kissed me 
A                                 D 
  And then she kissed me 
A                                 D             (D) 
  And then she kissed me
Acordes para:

    0 comentarios

    mostrar más comentarios

    ¿Conseguiste tocar?

    0 tocaron 0 aún no

    ¡Graba un vídeo tocando Then She Kissed Me y envianoslo!

    00:00 / 00:00
    outros vídeos desta música
    repetir qualidade Automático
    Outros vídeos desta música
    00:00 / 00:00
    Automático
    OK