Cifra Club

X-ray Eyes

Kiss

Tablatura: Principal (guitarra)
Tom: E
    intro/chorus
E|-------------------------------------------------------------------------|
B|--------------------3~------------------------------9---------------3~---|
G|--------------------2~-----4~---------5-----2---------9-------------2~---|
D|---9~---------5~----0~-----4~-----4-5-5---2-2---9~------------5~----0~---|
A|---7~---------5~----0~-----2~---0-2-3-----0-----7~------------5~----0~---|
E|---0~-----0-2-3~--------------------------------0~--------0-2-3~---------|

                             "Sometime's..."
E|---------------------------------------------------------------------------|
B|-----------------------------------------10-9~-------10-9~-------10-9~-----|
G:4~---------5----2~-----------------------9--9~-------9--9~-------9--9~-----|
D:4~-----4-5-5----2~----9~-----------------9--9~-------9--9~-------9--9~-----|
A:2~---0-2-3------0~----7~---------------------------------------------------|
E|----------------------0~---------------------------------------------------|

                                                         repeat
E|------------------------------------------------------------------------|
B|------------------------------------------------------------------------|
G|---12-11-9--12-11-9---12~-------7~------4-------------------------------|
D|---12-11-9--12-11-9---12~-------7~------4---4-4-4-4-4-4-4-4-4------9~---|
A|----------------------10~-------5~------2---2-2-2-2-2-2-2-2-2------7~---|
E|-------------------------------------------------------------------0~---|
                                                         to chorus

E|---------------------------------------------------------------------------|
B|---------------------------------------------------------------------------|
G|---------------------------------------------------------------------------|
D|------------------------5-4----5-4---4-------------------------------------|
A|---3-2----3-2----2----------5------5---5---5-4----5-4----4-----5-4---5-4---|
E|-------3------3----3---------------------------5------5----5------5-----5--|

E|---------------------------------------------------------------------------|
B|---------------------------------------------------------------------------|
G|---------------------------------------------------------------------------|
D|-----------------------5-4---5-4---4---------------------2-1--2-1--2-1--2-1|
A:4------3-2---3-2--2-------5-----5---5----5-4---5-4--4-------2----2----2----|
E|--5-------3-----3--3------------------------5-----5--5---------------------|
                                                                           to
E|------|
B|------|
G|------|
D|--2-1-|
A|2----2|
E|------|
   solo
reproducciones 65
Acordes para:
    Composição: Gene Simmons Colaboración y revision:
    • Taino Vieira

    0 comentarios

    mostrar más comentarios

    ¿Conseguiste tocar?

    0 tocaron 0 aún no

    ¡Graba un vídeo tocando X-ray Eyes y envianoslo!

    00:00 / 00:00
    outros vídeos desta música
    repetir qualidade Automático
    Outros vídeos desta música
    00:00 / 00:00
    Automático
    OK