Cifra Club

(You Make Me) Rock Hard

Kiss

Tablatura: Principal (guitarra)
reproducciones 203
Tono: F#
Key:
/    = slide up
\    = slide down
b    = bend (whole step)
b^   = bend (1/2 step)
b^^  = bend (1 1/2 steps)
pb   = pre-bend
r    = release-bend
t    = tap with right-hand finger
h    = hammer-on
p    = pull-off
~    = Vibrato
*    = Natural Harmonic
#(#) = Trill
**   = Artificial Harmonic
x    = Dead notes (no pitch)
P.M. = Palm mute (- -> underneath indicates which notes)
(\)  = Dive w\bar
(/)  = Release w\bar
Tp   = Tap w\plectrum
Rhythm Fig. 1

Eb|------------------------------------------------|
Bb|------------------------------------------------|
Gb|--9-9-9--------------5------7-------------------|
Db|--9-9-9--------------5------7-------------------|
Ab|--7-7-7--------------3------5-------------------|
Eb|------------------------------------------------|


Rhythm Fig. 2

Eb|------------------------------------------------|
Bb|------------------------------------------------|
Gb|--9-9-9-------------------5------7--------------|
Db|--9-9-9----12----11--9----5------7--------------|
Ab|--7-7-7----10----9---7----3------5--------------|
Eb|------------------------------------------------|



Rhythm Fig. 3

Eb|------------------------------------------------|
Bb|------------------------------------------------|
Gb|--5--------7--------9--------5------------------|
Db|--5--------7--------9--------5------------------|
Ab|--3--------5--------7--------3------------------|
Eb|------------------------------------------------|


Eb|------------------------------------------------|
Bb|------------------------------------------------|
Gb|------------------------------------------------|
Db|-7--7--7--7--7--7--7--7--7--7--7--7--7--7--7--7-|
Ab|-5--5--5--5--5--5--5--5--5--5--5--5--5--5--5--5-|
Eb|------------------------------------------------|



Rhythm Fig. 4 (clean, let ring)

Eb|--3-----------3---------------------------------|
Bb|-----3-----3-----3-----3------------------------|
Gb|--------0-----------0---------------------------|
Db|------------------------------------------------|
Ab|------------------------------------------------|
Eb|------------------------------------------------|




Rhythm Fig. 5

Eb|------------------------------------------------|
Bb|------------------------------------------------|
Gb|--7----7----7\---------5/-7--7----7\-----8------|
Db|--5----5----5\---5--5--3/-5--5----8\-----8------|
Ab|-----------------------------------------6------|
Eb|------------------------------------------------|


Eb|------------------------------------------------|
Bb|------------------------------------------------|
Gb|--8----------------3----------------------------|
Db|--8----------------3--------3-------------------|
Ab|--6----------------1--------3-------------------|
Eb|----------------------------1-------------------|


Eb|------------------------------------------------|
Bb|------------------------------------------------|
Gb|--7----7----7\---------5/-7--7----7\-----8------|
Db|--5----5----5\---5--5--3/-5--5----8\-----8------|
Ab|-----------------------------------------6------|
Eb|------------------------------------------------|


Eb|------------------------------------------------|
Bb|------------------------------------------------|
Gb|--8----------------10---------------------------|
Db|--8----------------10---------------------------|
Ab|--6----------------8----------------------------|
Eb|------------------------------------------------|


Rhythm Fig. 6

Eb|------------------------------------------------|
Bb|------------------------------------------------|
Gb|--12--------------------------7--7--9-----------|
Db|--12--------------------------7--7--9-----------|
Ab|--10--------------------------5--5--7-----------|
Eb|------------------------------------------------|



Rhythm Fig. 7

Eb|------------------------------------------------|
Bb|------------------------------------------------|
Gb|--12----12----10/-12------8------10-------------|
Db|--12----12----10/-12------8------10-------------|
Ab|--10----10----8/--10------6------8--------------|
Eb|------------------------------------------------|



Rhythm Fig. 8

Eb|------------------------------------------------|
Bb|------------------------------------------------|
Gb|--12-12-12------------------------12--12--8-----|
Db|--12-12-12------------------------12--12--8-----|
Ab|--10-10-10------------------------10--10--6-----|
Eb|------------------------------------------------|


Eb|------------------------------------------------|
Bb|------------------------------------------------|
Gb|--8----------------10---------------------------|
Db|--8----------------10---------------------------|
Ab|--6----------------8----------------------------|
Eb|------------------------------------------------|



Riff 1 (let ring)

Eb|------------------------------------------------|
Bb|------------------------------------------------|
Gb|--12----------12--------------------------------|
Db|--------12----------12--------------------------|
Ab|------------------------------------------------|
Eb|------------------------------------------------|



Solo

Eb|---------------------------------------------------------------|
Bb|--18b---18b~---15-16-18p16p15----15h16p15----------------------|
Gb|------------------------------17----------17~-------/10~-------|
Db|---------------------------------------------------------------|
Ab|---------------------------------------------------------------|
Eb|---------------------------------------------------------------|


Eb|---------------------------------------------------------------|
Bb|---------------------------------------------------------------|
Gb|---------------------------------------------------------------|
Db|--13--12--13--10--12------10-----------10*b-r10~---------------|
Ab|----------------------13------13-12-10-------------------------|
Eb|---------------------------------------------------------------|


Eb|-----------------------15-17b^-r17-15------------15h18p15------|
Bb|------------------18------------------18------18----------18---|
Gb|------15h17p15-------------------------------------------------|
Db|--/17----------17----------------------------------------------|
Ab|---------------------------------------------------------------|
Eb|---------------------------------------------------------------|


Eb|--20-----22--23b-r23--22--20-18\15~----------------------------|
Bb|---------------------------------------------------------------|
Gb|---------------------------------------------------------------|
Db|---------------------------------------------------------------|
Ab|---------------------------------------------------------------|
Eb|---------------------------------------------------------------|



(YOU MAKE ME) ROCK HARD
Paul Stanley, Desmond Child, Dianne Warren

[Rhy. Fig 1 & Rhy. Fig 2] (2x)
Turn it up

[Rhy. Fig 1 & Rhy. Fig 2] (2x)

[Rhy. Fig 1]
Hot lover, turn up the heat
I want your sugar, girl your love tastes so sweet
I feel a fire burnin' under me
I've got a hunger that you love's gotta feed

[Rhy. Fig 3 w/ Rhy. Fig 4]
You make me sweat, you turn me 'round
You get me up, you never let me down

Rhy. Fig 5 w/ Riff 1]
You make me rock hard, baby all night
Love's like a glove and it fits just rights
You make me rock hard, so baby hold tight
Come on baby, let's rock hard, baby all night
[Rhy. Fig 6]

[Rhy. Fig 1]
I'm under a physical spell
I'm a prisoner and your love is my cell
Once I get started I can't stop
I can't cool down 'cause this love is so hot

[Rhy. Fig 3 w/ Rhy. Fig 4]
You make me sweat, you turn me 'round
You get me up, you never let me down

[Rhy. Fig 5 w/ Riff 1]
You make me rock hard, baby all night
Love's like a glove and it fits just right
You make me rock hard, so baby hold tight
Come on baby, let's rock hard, baby all night

[Solo over Rhy. Fig 7]

[Rhy. Fig 3 w/ Rhy. Fig 4]
You make me sweat, you turn me 'round
You get me up, you never let me down

[Drums only]
You make me rock hard, baby all night
Love's like a glove and it fits just right
[Rhy. Fig 8]
You make me rock hard, so baby hold tight
Come on baby, let's rock hard, baby let's

[Rhy. Fig 5 w/ Riff 1]
Rock hard, baby all night
Love's like a glove and it fits just right
You make me rock hard, so baby hold tight
Come on baby, let's rock hard, baby all night

[Rhy. Fig 5 w/ Riff 1]
All night, all night, yeah, all night, hey

[Rhy. Fig 5 w/ Riff 1]
You make me rock hard, baby all night
Love's like a glove and it fits just right
You make me rock hard, so baby hold tight
Come on baby, let's rock hard, baby let's
Rock hard, baby all night

(Repeat and fade)
Acordes para:

    0 comentarios

    mostrar más comentarios

    ¿Conseguiste tocar?

    1 tocaron 0 aún no

    ¡Graba un vídeo tocando (You Make Me) Rock Hard y envianoslo!

    00:00 / 00:00
    outros vídeos desta música
    repetir qualidade Automático
    Outros vídeos desta música
    00:00 / 00:00
    Automático
    OK