Cifra Club

Get off (You Can Eat a Dick)

Kittie

Cifrado: Principal (guitarra y guitarra eléctrica)
tono: C
Tuning: 1 Whole Step  
 And Then Drop "D" Tuning 
  
 6=C 3=F 
 5=G 2=A  
 4=C 1=D 
  
 The Recording Sound A Quarter Step Flat 
  
 Tab Notes 
 nh=Natural Harmonics 
 pm.=Palm Mute 
 /=Slide Down 
 ~=Vibrato 
  
 ------------------------------------------------------------------------------ 
 ------------------------------------------------------------------------------ 
 ------------------------------------------------------------------------------ 
 ------------------------------------------------------------------------------ 
 ------------------------------------------------------------------------------ 
 ------------------------------------------------------------------------------ 
  Gtrs Tacet For 4 bars                                                         
  
 ------------------------------------------------------------------------------ 
 ------------------------------------------------------------------------------ 
 ------------------------------------------------------------------------------ 
 -3~-------3------1------------------------------------------------------------ 
 -3~-------3------1------------------------------------------------------------ 
 -3~-------3------1------------------------------------------------------------ 
  Intro Guitar One                                                              
  
 -0----------0----0---0----0--------0---0---0---0---0---0---0---0-------------- 
 -6----5--4-----4---4----4-----5--6---6---6---6---4---4---4---4---------------- 
 ------------------------------------------------------------------------------ 
 ------------------------------------------------------------------------------ 
 ------------------------------------------------------------------------------ 
 ------------------------------------------------------------------------------ 
  Intro Guitar Two                                                              
  
 ------------------------------------------------------------------------------ 
 ------------------------------------------------------------------------------ 
 ------------------------------------------------------------------------------ 
 -0-----4-4-4-4-4-444-----0-----4-4-4-4-4-5------------------------------------ 
 -0-----4-4-4-4-4-444-----0-----4-4-4-4-4-5------------------------------------ 
 -0-----4-4-4-4-4-444-----0-----4-4-4-4-4-5------------------------------------ 
  Verse nh...........           nh.........                                     
  
 ------------------------------------------------------------------------------ 
 ------------------------------------------------------------------------------ 
 -------------------------------*7*----7--------------------------------------- 
 ------------------------------------------------------------------------------ 
 -------------------------------*5*----5--------------------------------------- 
 ----------------------------0-0---0-0---0-0-0-0------------------------------- 
  Chorus (You Can Eat A Dick)pm.   ...   .......  Repeat 7x's End On *          
  
 ------------------------------------------------------------------------------ 
 ------------------------------------------------------------------------------ 
 ------------------------------------------------------------------------------ 
 ------------------------------------------------------------------------------ 
 ------------------------------------------------------------------------------ 
 ------------------------------------------------------------------------------ 
  Back To Verse                                                                 
  
 ------------------------------------------------------------------------------ 
 ------------------------------------------------------------------------------ 
 ------------------------------------------------------------------------------ 
 -2-0-2-0-2-3-2-0-------------------------------------------------------------- 
 -2-0-2-0-2-3-2-0-------------------------------------------------------------- 
 -2-0-2-0-2-3-2-0-------------------------------------------------------------- 
  Fast Part (I'm Suffocating) Use Pm For First 4x's, Play 12x's                 
  
 ------------------------------------------------------------------------------ 
 ------------------------------------------------------------------------------ 
 ------------------------------------------------------------------------------ 
 -2-2-2-2-2---2-3-------------------------------------------------------------- 
 -2-2-2-2-2---2-3-------------------------------------------------------------- 
 -2-2-2-2-2---2-3-------------------------------------------------------------- 
  Repeat This 4x's                                                              
  
 ------------------------------------------------------------------------------ 
 ------------------------------------------------------------------------------ 
 ------------------------------------------------------------------------------ 
 ----------------------------------------------4------------------------------- 
 ----------------------------------------------4------------------------------- 
 ----------------------------------------------4------------------------------- 
  Go Back To Intro                     End On  nh          

--------------------------------------------------------------------------------
00:00 / 00:00
Otros videos de esta canción
Repetir
Otros videos de esta canción
Composición de Kittie
Colaboración y revisión:
  • Hellektra
20 exhibiciones
    • ½ Tono
    • A
    • Bb
    • B
    • C
    • Db
    • D
    • Eb
    • E
    • F
    • F#
    • G
    • Ab
  • Agregar a la lista
    00:00 / 00:00
    OK