Cifra Club

Sorrow I Know

Kittie

Cifrado: Principal (guitarra y guitarra eléctrica)
tono: E
(intro)
Morgan
D|------------------------------------------------------------------|
A|------------------------------------------------------------------|
F|------------------------------------------------------------------|
C|-2-2-2-4-4-4-5-4-2-5-5-5-1-1-1-3-3-3-4-3-1-5-5-5------------------|
G|-2-2-2-2-2-2-2-2-2-5-5-5-1-1-1-1-1-1-1-1-1-5-5-5------------------|
C|-2-2-2-2-2-2-2-2-2-5-5-5-1-1-1-1-1-1-1-1-1-5-5-5------------------| (2x)

(intro)
Tara
D|---------------------------------------------------------------|
A|---------------------------------------------------------------|
F|--------NH----------------------------NH-----------------------|
C|-2~-------------2~--5~-----1~------------1~---5~---------------|
G|---------------------------------------------------------------|
C|---------------------------------------------------------------| (2x)

(verse)
Morgan
D|-------------------------------------------------------------|
A|-------------------------------------------------------------|
F|-------------------------------------------------------------|
C|-------------------------------------------------------------|
G|-----------2-2----------2-2----------2-2-----------2-2-------|
C|-2-2-5-5------2-2-5-5-----2-2-5-5------2-2-5-5---------------|

D|-------------------------------------------------------------|
A|-------------------------------------------------------------|
F|-------------------------------------------------------------|
C|-------------------------------------------------------------|
G|----------1-1----------1-1----------1-1----------1-1---------|
C|-1-1-4-4-----1-1-4-4-----1-1-4-4-----1-1-4-4-----------------|

(verse)
Tara
D|-------------------------------------------------------------|
A|-------------------------------------------------------------|
F|------0-0-4-4-----0-0-4-4-----0-0-4-4------0-0-44------------|
C|-2-2----------2-2----------2-2----------2-2------------------|
G|-------------------------------------------------------------|
C|-------------------------------------------------------------|

D|--------------------------------------------------------------|
A|--------------------------------------------------------------|
F|-----------3-3----------3-3---------3-3----------3-3----------|
C|-1-1-4-4-----1-1-4-4-----1-1-4-4-----1-1-4-4------------------|
G|--------------------------------------------------------------|
C|--------------------------------------------------------------|

Morgan
D|-------------------------------------------------------------|
A|-------------------------------------------------------------|
F|-------------------------------------------------------------|
C|-2-2-2-2-2-2-2-2-2-5-5-5-1-1-1-1-1-1-1-1-1-5-5-5-------------|
G|-2-2-2-2-2-2-2-2-2-5-5-5-1-1-1-1-1-1-1-1-1-5-5-5-------------|
C|-2-2-2-2-2-2-2-2-2-5-5-5-1-1-1-1-1-1-1-1-1-5-5-5-------------| (2x)

(chorus)
Tara
D|---------------------------------------------------------------|
A|---------------------------------------------------------------|
F|--------NH--------------------------NH-------------------------|
C|-2~-------------2~--5~-----1~------------1~---5~---------------|
G|---------------------------------------------------------------|
C|---------------------------------------------------------------| (2x)

(interlude)
Morgan
D|---------------------------------------------------------------------------|
A|---------------------------------------------------------------------------|
F|---------------------------------------------------------------------------|
C|---------------------------------------------------------------------------|
G|---------------------------------------------------------------------------|
C|-222-2-222-2-222-2-222-2--5-5-5-5-5-5-111-1-111-1-111-1-111-1-5-5-5-5-5-5--|

(solo)
Tara
D|--------------------------------------------------------------------------------------------|
A|---------------------------------------------------------------------------14h15P14---------|
F|---------16---------16---------16----------16---------16----------16-------------16-----16--|
C|-14-17-----14-17-----14-17-----14-17------14-17-----14-17--------------------17-----14------|
G|--------------------------------------------------------------------------------------------|
C|--------------------------------------------------------------------------------------------|

D|---------------------------------------------------------------------------------------------|
A|--------------------------------------------------------------------------13h14P13-----------|
F|---------15---------15---------15----------15--------15---------15----------------15-----15--|
C|-13-16-----13-16-----13-16-----13-16------13-16----13-16------------------------16-----13----|
G|---------------------------------------------------------------------------------------------|
C|---------------------------------------------------------------------------------------------|

D|--------------------------------------------------------------------------------------------|
A|---------------------------------------------------------------------------14h15P14---------|
F|---------16---------16---------16----------16---------16----------16-------------16-----16--|
C|-14-17-----14-17-----14-17-----14-17------14-17-----14-17---------------------17-----14-----|
G|--------------------------------------------------------------------------------------------|
C|--------------------------------------------------------------------------------------------|

D|---------------------------------------------------------------------------------------------|
A|--------------------------------------------------------------------------13h14P13-----------|
F|---------15---------15---------15----------15--------15---------15----------------15-----15--|
C|-13-16-----13-16-----13-16-----13-16------13-16----13-16------------------------16-----13----|
G|---------------------------------------------------------------------------------------------|
C|---------------------------------------------------------------------------------------------|

Morgan
D|------------------------------------------------------------------|
A|------------------------------------------------------------------|
F|------------------------------------------------------------------|
C|-2-2-2-4-4-4-5-4-2-5-5-5-1-1-1-3-3-3-4-3-1-5-5-5------------------|
G|-2-2-2-2-2-2-2-2-2-5-5-5-1-1-1-1-1-1-1-1-1-5-5-5------------------|
C|-2-2-2-2-2-2-2-2-2-5-5-5-1-1-1-1-1-1-1-1-1-5-5-5------------------|

D|------------------14-19-14-------------------------------14-19-14------------------|
A|---------------15-----------15-------------------------15-----------15-------------|
F|------------16------------------16------------------16------------------16---------|
C|--------16-------------------------16-----------16------------------------16-------|
G|-14-17-------------------------------17-14-17-------------------------------17-14--|
C|-----------------------------------------------------------------------------------|

D|--------------------13-18-13------------------------------13-18-13------------------|
A|----------------14-------------14-----------------------14-----------14-------------|
F|-------------15---------------------15---------------15-----------------15----------|
C|--------15-----------------------------15--------15------------------------15-------|
G|-13-16------------------------------------16-13------------------------------16-13--|
C|------------------------------------------------------------------------------------|

D|------------------14-19-14-------------------------------14-19-14------------------|
A|---------------15-----------15-------------------------15-----------15-------------|
F|------------16------------------16------------------16------------------16---------|
C|--------16-------------------------16-----------16------------------------16-------|
G|-14-17-------------------------------17-14-17-------------------------------17-14--|
C|-----------------------------------------------------------------------------------|

D|--------------------13-18-13------------------------------13-18-13------------------|
A|----------------14-------------14-----------------------14-----------14-------------|
F|-------------15---------------------15---------------15-----------------15----------|
C|--------15-----------------------------15--------15------------------------15-------|
G|-13-16------------------------------------16-13------------------------------16-13--|
C|------------------------------------------------------------------------------------|
00:00 / 00:00
Otros videos de esta canción
Repetir
Otros videos de esta canción
Composición de Kittie
Colaboración y revisión:
  • Hellektra
32 exhibiciones
    • ½ Tono
    • A
    • Bb
    • B
    • C
    • Db
    • D
    • Eb
    • E
    • F
    • F#
    • G
    • Ab
  • Agregar a la lista
    00:00 / 00:00
    OK