Cifra Club

Suck

Kittie

Cifrado: Principal (guitarra y guitarra eléctrica)
tono: Bb
Tuning: 
 
6=C  3=F 
5=G  2=A 
4=C  1=D 
 
Intro: 
                                                  4 
d|------------------------------------------------|--------------------------| 
A|------------------------------------------------|--------------------------| 
F|------------------------------------------------|--------------------------| 
C|-2-2-x-x-x--------------------------------------|--------------------------| 
G|-2-2-x-x-x--------------------------------------|--------------------------| 
C|-2-2-x-x-x--0-2-2--0-2-2--0-2-2--0-2-2--0-2-3-2-|--------------------------| 
             |-----------------------------------| 
                         Bass 
  Verse 
                                                  4 
d|------------------------------------------------|--------------------------| 
A|------------------------------------------------|--------------------------| 
F|------------------------------------------------|--------------------------| 
C|-2-2-5-5-5--2-2-5-5-5--2-2-5-5-5--2-2-2-2-3-2-0-|--------------------------| 
G|-2-2-5-5-5--2-2-5-5-5--2-2-5-5-5--2-2-2-2-3-2-0-|--------------------------| 
C|-2-2-5-5-5--2-2-5-5-5--2-2-5-5-5--2-2-2-2-3-2-0-|--------------------------| 
      |-----|    |-----|    |-----| pm........... 
       harm.      harm.      harm.  
 
Chorus 
                 4             4 
d|---------------|-------------|---------------------------------------------| 
A|---------------|-------------|---------------------------------------------| 
F|---------------|-------------|---------------------------------------------| 
C|---------------|-5-0-0-5-1-1-|---------------------------------------------| 
G|---------------|-5-0-0-5-1-1-|---------------------------------------------| 
C|-5-0-0-5-1-1-1-|-5-0-0-5-1-1-|---------------------------------------------| 
  |--------------| 
       Bass 
 
Bridge               Fill 1 
                   4 
d|-----------------|---------------------------------------------------------| 
A|-----------------|---------------------------------------------------------| 
F|-----------------|---------------------------------------------------------| 
C|-----------------|-5-------------------------------------------------------| 
G|-----------------|-5-------------------------------------------------------| 
C|-0-0-0-0-0-0-0-0-|-5-------------------------------------------------------| 
   pm.............   harm. 
 
 
Outro: 
 
d|---------------------------------------------------------------------------| 
A|---------------------------------------------------------------------------| 
F|---------------------------------------------------------------------------| 
C|-1-0-1-1-0-1-1-0-1-3-1-0---------------------------------------------------| 
G|-1-0-1-1-0-1-1-0-1-3-1-0---------------------------------------------------| 
C|-1-0-1-1-0-1-1-0-1-3-1-0---------------------------------------------------| 
 
 
00:00 / 00:00
Otros videos de esta canción
Repetir
Otros videos de esta canción
Composición de Kittie
Colaboración y revisión:
  • Tiago Muniz
33 exhibiciones
    • ½ Tono
    • A
    • Bb
    • B
    • C
    • Db
    • D
    • Eb
    • E
    • F
    • F#
    • G
    • Ab
  • Agregar a la lista
    00:00 / 00:00
    OK