Cifra Club

Saya sensual

Los Kjarkas

Chords: Principal (acoustic and electric guitars)
tone: D
Introducción:

   D                                                     Em
E|----------7-9-10-12-12-10-9----12-10-9----12-10-9----10---|
B|---7-8-10-------------------12---------12---------12----8-|
G|-9--------------------------------------------------------|
D|----------------------------------------------------------|
A|----------------------------------------------------------|
E|----------------------------------------------------------|

                     A                     D
E|-------7-9-10-9/10-9-9-|-7-------7-9-10-9---|
B|-3/8-8-----------------|---10-10----------7-|
G|-----------------------|--------------------|
D|-----------------------|--------------------|
A|-----------------------|--------------------|
E|-----------------------|--------------------|

   D                                                     Em
E|----------7-9-10-12-12-10-9----12-10-9----9-10-12-13-14----|
B|---7-8-10-------------------12---------12---------------12-|
G|-9---------------------------------------------------------|
D|-----------------------------------------------------------|
A|-----------------------------------------------------------|
E|-----------------------------------------------------------|

                     A                  D
E|----14-15-14-12-12-10-9-9-10-12-|-10-10-12-9-------------------10-|
B|-12-----------------------------|------------12-10----------10-10-|
G|--------------------------------|------------------11-10-11----11-|
D|--------------------------------|---------------------------------|
A|--------------------------------|---------------------------------|
E|--------------------------------|---------------------------------|





D
Si supieras
                 F#m
cuanto te he esperado
            G
cuanto te amado
           D   A A
cuanto te soñe.

Bm
Cuantas noches
             F#m
de pasión perdida
             G
te soñe vencida
           A
te hice mujer

D
Si supieras
                 F#m
cuanto te he esperado
            G
cuanto te amado
           D   A A
cuanto te soñe.



Bm
Y he sufrido
           F#m
todo mi fracaso
                   G
cuando en otros brazos
          A
te vi sonreir

D                 F#m
Yo quiero ser tu amor
D      D7         G F#m Em
quiero ser mas que amigo
                  G F#m Em
que por ningun motivo
A              D
me dejes de amar.
00:00 / 00:00
Other videos of this song
Repeat
Other videos of this song
312 views
    • ½ Tone
    • A
    • Bb
    • B
    • C
    • Db
    • D
    • Eb
    • E
    • F
    • F#
    • G
    • Ab
  • Add to list

Afinação da cifra

Afinador online

    00:00 / 00:00
    OK