Cifra Club

Son Tantas Noches

Los Kjarkas

Tablatura: Principal (guitarra)
tono: Am
[Intro] Dm  G  C  Am  Dm  E7

E|--3-3-1-3-0-0-3-3----------|
B|---------------------------|
G|---------------------------|
D|---------------------------|
A|---------------------------|
E|---------------------------|

          Am
E|-----------------------------|
B|-----------------------------|
G|--2-1-2-4-2-4-5-4-5-7-5-7-9--|
D|-----------------------------|
A|-----------------------------|
E|-----------------------------|

Am                     G
Si estás pensando que no sufrí

E|-----------------------------|
B|-----------------------------|
G|-----------------------------|
D|-----------------------------|
A|--0-1/2--0-1/2--0-1/2--0-----|
E|-------------------------3-5-|

Am                     G
Que ha sido facil vivir sin ti

E|-----------------------------|
B|-----------------------------|
G|-----------------------------|
D|-----------------------------|
A|--0-1/2--0-1/2--0-1/2--0-----|
E|-------------------------3-5-|

Dm7                     E7
   No te equivoques quise morir
Dm7                    E7
No te equivoques sentí morir

Am                  G
Cuánto te amaba no sé decir

E|-----------------------------|
B|-----------------------------|
G|-----------------------------|
D|-----------------------------|
A|--0-1/2--0-1/2--0-1/2--0-----|
E|-------------------------3-5-|

Am                  G
Fuiste mi aire para vivir

E|-----------------------------|
B|-----------------------------|
G|-----------------------------|
D|-----------------------------|
A|--0-1/2--0-1/2--0-1/2--0-----|
E|-------------------------3-5-|

Dm7                  E7
Y sin embargo te fuiste tú
Dm7                  E7      G-Em-Dm-A7
Y sin embargo te fuiste tú

A7                    Dm
Son tantas noches que no dormí
G                  C
Tantas estrellas que vi morir
Am                      Dm
¿Por qué te fuiste lejos de mi?
E7                    Am-A-A7
Son tantas noches que no dormí

A7                    Dm
Son tantas noches que no dormí
G                  C
Tantas estrellas que vi morir
Am                      Dm
¿Por qué te fuiste lejos de mi?
E7                    Am      Am  Dm  G  C  Am  Dm  E7  Am
Son tantas noches que no dormí

Am                  G
Cuánto te amaba no sé decir

E|-----------------------------|
B|-----------------------------|
G|-----------------------------|
D|-----------------------------|
A|--0-1/2--0-1/2--0-1/2--0-----|
E|-------------------------3-5-|

Am                  G
Fuiste mi aire para vivir

E|-----------------------------|
B|-----------------------------|
G|-----------------------------|
D|-----------------------------|
A|--0-1/2--0-1/2--0-1/2--0-----|
E|-------------------------3-5-|

Dm7                  E7
Y sin embargo te fuiste tú
Dm7                  E7      G Em Dm  A7
Y sin embargo te fuiste tú

A7                    Dm
Son tantas noches que no dormí
G                  C
Tantas estrellas que vi morir
Am                      Dm
¿Por qué te fuiste lejos de mi?
E7                    Am-A-A7
Son tantas noches que no dormí

A7                    Dm
Son tantas noches que no dormí
G                  C
Tantas estrellas que vi morir
Am                      Dm
¿Por qué te fuiste lejos de mi?
E7                    Am      Am  Dm  G  C  Am  Dm  E7  Am
Son tantas noches que no dormí

[Final] Am  Dm  G  C
        Am  Dm  E7  Am
Composição de Cristian Corrales
Colaboración y revision:
  • Cristian Corrales
97 reproducciones
    • ½ Tono
    • Am
    • Bbm
    • Bm
    • Cm
    • C#m
    • Dm
    • Ebm
    • Em
    • Fm
    • F#m
    • Gm
    • G#m
  • Adicionar à lista

    0 comentarios

    Ver todos os comentários

    ¿Conseguiste tocar?

    0 Tocaram 0 Ainda não

    Grave um vídeo tocando Son Tantas Noches e nos envie!

    00:00 / 00:00
    outros vídeos desta música
    repetir qualidade Automático
    Outros vídeos desta música
    00:00 / 00:00
    Automático
    OK