Cifra Club

Wayayay

Los Kjarkas

Chords: Principal (acoustic and electric guitars)
tone: D
E|-----------0-------0---0-----3----0----3----0-----------|
B|------------------------------------------------0-------|
G|--------------------------------------------------0-----|
D|--------------------------------------------------------|
A|----2--------------2---2-----2----2----2----2-----------|
E|--------------------------------------------------------|

E|-------------------------------------------------------|
B|-------2---0---2---------3--3------2--2------2---------|
G|-------------------------------------------------------|
D|-------------------------------------------------------|
A|---0------------------0---------0---------0------------|
E|-------------------------------------------------------|

E|--------0-----0-0-3----------------2/0-----3--0---0----|
B|--------2-----------------------3------3---------------|
G|--------0--------------------2-------------------------|
D|--------------------------0----------------------------|
A|---3----------3-3-3------------------------------------|
E|-------------------------------------------0--3---2----|
2 veces
00:00 / 00:00
Other videos of this song
Repeat
Other videos of this song
174 views
    • ½ Tone
    • A
    • Bb
    • B
    • C
    • Db
    • D
    • Eb
    • E
    • F
    • F#
    • G
    • Ab
  • Add to list

Afinação da cifra

Afinador online

    00:00 / 00:00
    OK