Cifra Club

Liberto Pelo Amor

Kleber Lucas

Cifrado: Principal (guitarra y guitarra eléctrica)
tono: C
[Intro] C  G  Am  F  G 
        C  G  Am  F  G 
        Am  G/A  Am  G/A 

E|-------------------------------------------------------------|
B|--------------------------------3s5-5s6s5--------------------|
G|---------5-5-5s7-7----------5-5------------------------------|
D|-3s5-5-5-------------3s5-5-5---------------------------------|
A|-------------------------------------------------------------|
E|-------------------------------------------------------------|

E|-------------------------------------------------------------|
B|-----------5-8-6-5--6-5-3--5-3----3--------------------------|
G|-------5-5---------------------5---5-4--5-4-2--4-2---2-------|
D|-7-7-7--------------------------------------------5----5-3s5-|
A|-------------------------------------------------------------|
E|-------------------------------------------------------------|

E|-------------------------------------------------------------|
B|--------------------------------3s5-5s6s5--------------------|
G|---------5-5-5s7-7----------5-5------------------------------|
D|-3s5-5-5-------------3s5-5-5---------------------------------|
A|-------------------------------------------------------------|
E|-------------------------------------------------------------|

E|-------------------------------------------------------------|
B|-----------5-8-6-5--6-5-3--5-3----3--------------------------|
G|-------5-5---------------------5---5-4--5-4-2--4-2---2-------|
D|-7-7-7--------------------------------------------5----5-3---|
A|-------------------------------------------------------------|
E|-------------------------------------------------------------|

E|-------------------------------------------------------------|
B|-------------------------------------------------------------|
G|-------------------------------------------------------------|
D|-5-3-2--3-2----2---------------------------------------------|
A|------------5---5-3--5-3-2--3-2---2--------------------------|
E|-------------------------------5---5-3-----------------------|

E|-3s5-5-5--5-7-7-7s8-7--5s7-7-7-7-8-8-8s10-8--7s8-8-8-10-10---|
B|-------------------------------------------------------------|
G|-------------------------------------------------------------|
D|-------------------------------------------------------------|
A|-------------------------------------------------------------|
E|-------------------------------------------------------------|

E|-12-13-12-10--12-10-8--10-8-7--8-7-5--7-5-3--3s5-------------|
B|-------------------------------------------------------------|
G|-------------------------------------------------------------|
D|-------------------------------------------------------------|
A|-------------------------------------------------------------|
E|-------------------------------------------------------------|

Am                          G/A
Eu fui liberto pelo Teu amor, Senhor
                           Am
Eu fui liberto pelo Teu amor
              G                   Em
E sem o Teu amor, Eu sei que nada sou
                  F                     Dm
Sou um ramo sem flor, nem sei como existir
                    G  Em                           Am
Eu fui salvo pelo amor,   Eu fui liberto pelo Teu amor

Am
A graça do nosso Deus, revelada em Jesus
G                                                Em
  Em sua expressão maior, morrendo naquela cruz
            Am             G/A
Eu não merecia este amor

E|-7-5--5------------------------------------------------------|
B|----8--8-6--8-6-5--6-5----5----------------------------------|
G|-----------------------7----7-5--7-5---5---------------------|
D|-------------------------------------7-----------------------|
A|-------------------------------------------------------------|
E|-------------------------------------------------------------|

C                  G                      Am
Como pássaro a voar, vou seguindo a Tua luz
                     F             G           C
Me cobrindo da Tua glória, do teu manto meu Jesus
C                  G                      Am
Como pássaro a voar, vou seguindo a Tua luz
                     F             G           Am  G/A  Am
Me cobrindo da Tua glória, do teu manto meu Jesus

E|-3s5-5-5--5-7-7-7s8-7--5s7-7-7-7-8-8-8s10-8--7s8-8-8-10-10---|
B|-------------------------------------------------------------|
G|-------------------------------------------------------------|
D|-------------------------------------------------------------|
A|-------------------------------------------------------------|
E|-------------------------------------------------------------|

E|-12-13-12-10--12-10-8--10-8-7--8-7-5--7-5-3--3s5-------------|
B|-------------------------------------------------------------|
G|-------------------------------------------------------------|
D|-------------------------------------------------------------|
A|-------------------------------------------------------------|
E|-------------------------------------------------------------|

Am                          G/A
Eu fui liberto pelo Teu amor, Senhor
                           Am
Eu fui liberto pelo Teu amor
                G                 Em
Jesus meu salvador, segura minha mão
                 F                  Dm
Eu quero prosseguir e não vou desistir
                        G  Em                           Am
Tenho as marcas deste amor,   Eu fui liberto pelo Teu amor

Ninguém me amou assim, com a força deste amor
G                                          Em
sem nenhuma explicação encheu o meu coração de amor
                          Am    G
Eu sou testemunha deste amor

[Solo] Am  G  F  Am  G  F  C 

E|---------------5-7-8--7-8-8s10--8-7-8-7-5--5-7-7s8-----------|
B|-6-8-10-8-8s10-----------------------------------------------|
G|-------------------------------------------------------------|
D|-------------------------------------------------------------|
A|-------------------------------------------------------------|
E|-------------------------------------------------------------|

E|------10-----8-----7-----------------------------------------|
B|-10s8----8s6---6s5-------10---8----6-------------------------|
G|---------------------10s9--9s7--7s5----9----7----5----4---5--|
D|------------------------------------9s7--7s5--5s3--3s2-3s5---|
A|-------------------------------------------------------------|
E|-------------------------------------------------------------|
Compositor não encontrado.
Colaboración y revisión:
  • hernanny moura
  • Miquéias Boeira
69 vistas
    • ½ Tono
    • A
    • Bb
    • B
    • C
    • Db
    • D
    • Eb
    • E
    • F
    • F#
    • G
    • Ab
  • Agregar a la lista

    0 comentarios

    Ver todos los comentarios
    00:00 / 00:00
    Outros vídeos desta música
    Repetir Calidad Automático
    Outros vídeos desta música
    00:00 / 00:00
    Automático
    OK